PrimaNota.ru - самый крупный в мире бесплатный архив песенных текстов, аккордов, табулатур и нот


Insomnium - Gale - текст песни, таба, видео

Регистрация Запомнить меня
Войти через:  Facebook Google Twitter Vk Yandex Mail.ru

Insomnium - Gale - текст песни, таба, видео

Печатать
Просмотров: 188
Авторы музыки: Ville Friman

Artist: Insomnium
Album:  Above the Weeping World (2006)
Song:   The Gale
Label:  Candlelight Records                          
Tuning: Guitar Tune down 1 step (D-G-C-f-a-d)

Tabbed by: dupree79




This is the main lead guitar part (0:46).

d|----------------|----------------|----------------|----------------|
a|----------------|----------------|----------------|----------------|
f|----------------|----------------|-------4-2------|----------------|
C|--2--2-5-4------|--2-------------|--2--5-----4-4--|--2-------------|
G|-----------5-5--|-------2-0------|----------------|-------2-0------|
D|----------------|-----3-----2-2--|----------------|-----3-----2-2--|

d|---------------------|---------------------|-----|
a|------------5-3------|---------------------|-----|
f|-------4--4-----2-2--|-------4----4-2------|-----|
C|--2--5---------------|--2--5----5-----4-4--|-5-4-|
G|---------------------|---------------------|-----|
D|---------------------|---------------------|-----|

d|-----------------------------------------------------|
a|-----------5-3---------------------------------------|
f|------4--4-----2-5--5-4-2-5--5-4-2-4-0-0-2-----------|x2
C|--2-5---------------------------------------2-5-4----|
G|--------------------------------------------------5--|
D|-----------------------------------------------------|


d|-------------12-10------------------------------------------------------|
a|----8-12--12-------10-13--13-12-10-13--13-12-10-12----------------------|
f|--9------------------------------------------------12-12-14--9-12-11-7--|x2
C|------------------------------------------------------------------------|
G|------------------------------------------------------------------------|
D|------------------------------------------------------------------------|

d|-----|
a|-----|
f|--9--|
C|-----|
G|-----|
D|-----|




dupree79, 27.05.2010

http://www.insomnium.net/
Добавлено: 28.02.2012
Другие материалы по этой песне:

Страница создана 28.02.2012
http://primanota.ru/insomnium/gale-chords.htm
Привет, Гость.
Предлагаем пройти революционный курс по гитаре.
Подарок от PrimaNota.Ru, забирай!