PrimaNota.ru - самый крупный в мире бесплатный архив песенных текстов, аккордов, табулатур и нот


Inside Riot - Johnny - бас-таба, видео

Регистрация Запомнить меня
Войти через:  Facebook Google Twitter Vk Yandex Mail.ru

Inside Riot - Johnny - бас-таба, видео

Печатать
Просмотров: 76
\= hold note    ---------------------------------------------------|without \= don't hold note
G -----------------------------------------------------------------|
D -------------------------------------------------------------2---|
A 22--44--00\------------------------------------------------24-4--|
D -----------------------------------------------------------------|

G ----------------------------------------------------------------|
D ----------------------------------------------------------------|
A 4-44-44-44-4444-0-00-00-00-0000---------------------------------|
D --------------------------------2-22-22-22-2222-4-44-44-44-4444-|

G ----------------------------------------------------------------|
D ----------------------------------------------------------------|
A 4-44-44-44-4444-0-00-00-00-0000---------------------------------|
D --------------------------------2-2-2-4-4-4-6-6-6-7-7-7-7-7-7-7-|

G ----------------------------------------------------------------|
D --------2-0---------------------------------------------------2-|
A 4-4-4-4-----4-0---0-0-0-0-0-0-0---------------------------2-4---|
D --------------------------------2-2-2-2-2-2-2-4---4-4-4-4-------|

G ----------------------------------------------------------------|
D --------2-0-----------------------------------------------------|
A 4-4-4-4-----4-0---0-0-0-0-0-0-0---------------------------------|
D --------------------------------2-2-2-2-2-2-2-2-2-2-2-2-2-2-2-2-|

G ----------------------------------------------------------------|
D ----------------------------------------------------------------|
A ------------0-0-0-0-0-0-0-0-0-0---------------------------------|
D 6-6-6-4-4-4---------------------2-2-2-2-2-2-2-2-2-2-2-2-2-2-2-2-|

G ----------------------------------------------------------------|
D ------------0-0-0-0-0-0-0-0-0-0-----------------------------2---|
A --------------------------------------------------------2-4---4-|
D 6-6-6-4-4-4-----------------------------------------------------|

G ---------------------------------------------------------------|
D ----------------------------2-----------2-0--------------------|
A 2-2-----4-4-----0-0\----2-4---4-0---0-------4-------4-4-5-5-7--|
D ----------------------------------------------2---2------------|

G ---------------------------------------------------------------|
D --------2-0-----------------2-----------2-0--------------------|
A 4---4-------4-2---2-2-2-2-4---4-0---0-------4------------------|
D ----------------------------------------------2---2-4-4-5-5-7--|

G ---------------------------------------------------------------|
D ----------------------------------------2-0--------------------|
A --------------------------------0---0-------4------------------|
D 4---4---4-4-4-4---4-4-4-4-6-6-6---------------2---2-4-4-5-5-7--|

G ---------------------------------------------------------------|
D --------2-0-----------------2-----------2-0--------------------|
A 4---4-------4-2---2-2-2-2-4---4-0---0-------4------------------|
D ----------------------------------------------2---2-4-4-5-5-7--|

G ---------------------------------------------------------------|
D ---------------------------------------------------------------|
A --------------------------------------------0\-----------------|
D 4---4---4-4-4-4---4-4-4-4-6-6-6-2\----4\-----------------------|

this is loike half of the song, ill finish it later http://www.insideriot.com
Добавлено: 25.06.2013
Другие материалы по этой песне:
  • Аккорды и текст

Страница создана 25.06.2013
http://primanota.ru/inside-riot/johnny-chords.htm
Привет, Гость.
Предлагаем пройти революционный курс по гитаре.
Подарок от PrimaNota.Ru, забирай!