PrimaNota.ru - самый крупный в мире бесплатный архив песенных текстов, аккордов, табулатур и нот


Insania - The Land Of The Wintersun - таба, видео

Регистрация Запомнить меня
Войти через:  Facebook Google Twitter Vk Yandex Mail.ru

Insania - The Land Of The Wintersun - таба, видео

Печатать
Просмотров: 82
Уроки эстрадного вокала в Санкт-Петербурге
  The Land Of The Wintersun                             


                                    Insania Stockholm
H.Juhano Guitar 1
Enjoy it!



                PM PM PM PM                                                    
                                             |-----3----|     |-----3----|     
             E  S  S  S  S  H        E       Q     Q    Q     Q     Q    Q     
E||-------|-----------------------------|-------------------------------------|
B||-------|-----------------------------|-------------------------------------|
G||-------|-----------------------------|-------------------------------------|
D||-------|--9--------------9--------L--|--/12----10----9---------------------|
A||-------|--7--7--7--7--7--7--------L--|--------------------12----10----7----|
E||-------|-----------------------------|-------------------------------------|


     PM PM PM PM                                        
  E  S  S  S  S  H            Q    Q    Q    H          
--------------------------|----------------------------|
--------------------------|----------------------------|
--------------------------|----------------------------|
--5--------------5--------|--/9----7----L----4~--------|
--3--3--3--3--3--3--------|----------------------------|
--------------------------|----------------------------|


  AHHHHHHHHHHHHHHHH!!!!!!                          
                          PM PM PM PM              
  E                       S  S  S  S  H        E   
--------------------------------------------------|
--------------------------------------------------|
--------------------------------------------------|
--9-----------------------------------9--------L--|
--7-----------------------7--7--7--7--7--------L--|
--------------------------------------------------|


                                           PM PM PM PM           
    |-----3----|     |-----3----|                                
    Q     Q    Q     Q     Q    Q       E  S  S  S  S  H         
-------------------------------------|--------------------------|
-------------------------------------|--------------------------|
-------------------------------------|--------------------------|
--/12----10----9---------------------|--5--------------5--------|
--------------------12----10----7----|--3--3--3--3--3--3--------|
-------------------------------------|--------------------------|


   Q    Q    Q    H            H.           Q       H        H         
----------------------------|--------------------|--------------------|
----------------------------|--------------------|--------------------|
----------------------------|--------------------|--------------------|
--/9----7----L----4~--------|--------------------|--------------------|
----------------------------|--3------------5----|--7--------6--------|
----------------------------|--------------------|--------------------|


                                               PM PM PM PM    PM          
  W                    W                    E  S  S  S  S  E  E  Q    E   
-------------------|---------------------|-------------------------------|
-------------------|---------------------|-------------------------------|
-------------------|---------------------|-------------------------------|
-------------------|---------------------|--9--------------9-----9----L--|
--L----------------|--/7~----------------|--7--7--7--7--7--7--7--7----L--|
--0----------------|---------------------|-------------------------------|


                                           PM PM PM PM           
    |-----3----|     |-----3----|                                
    Q     Q    Q     Q     Q    Q       E  S  S  S  S  H         
-------------------------------------|--------------------------|
-------------------------------------|--------------------------|
-------------------------------------|--------------------------|
--/12----10----9---------------------|--5--------------5--------|
--------------------12----10----7----|--3--3--3--3--3--3--------|
-------------------------------------|--------------------------|


                                  PM PM PM PM    PM          
   Q    Q    Q    H            E  S  S  S  S  E  E  Q    E   
----------------------------|-------------------------------|
----------------------------|-------------------------------|
----------------------------|-------------------------------|
--/9----7----L----4~--------|--9--------------9-----9----L--|
----------------------------|--7--7--7--7--7--7--7--7----L--|
----------------------------|-------------------------------|


                                           PM PM PM PM           
    |-----3----|     |-----3----|                                
    Q     Q    Q     Q     Q    Q       E  S  S  S  S  H         
-------------------------------------|--------------------------|
-------------------------------------|--------------------------|
-------------------------------------|--------------------------|
--/12----10----9---------------------|--5--------------5--------|
--------------------12----10----7----|--3--3--3--3--3--3--------|
-------------------------------------|--------------------------|


   Q    Q    Q    H            H.           Q       H        H         
----------------------------|--------------------|--------------------|
----------------------------|--------------------|--------------------|
----------------------------|--------------------|--------------------|
--/9----7----L----4~--------|--------------------|--------------------|
----------------------------|--3------------5----|--7--------6--------|
----------------------------|--------------------|--------------------|


  W                    W                  
-------------------|---------------------|
-------------------|---------------------|
-------------------|---------------------|
-------------------|--/9~----------------|
--L----------------|---------------------|
--0----------------|---------------------|


     PM PM PM PM             PM PM PM PM           
  E  S  S  S  S  H        E  S  S  S  S  H         
--------------------------------------------------|
--------------------------------------------------|
--------------------------------------------------|
--9--------------9--------9--------------9--------|
--7--7--7--7--7--7--------7--7--7--7--7--7--------|
--------------------------------------------------|


     PM PM PM PM PM PM PM PM PM PM PM PM PM PM PM PM PM PM PM PM PM PM PM PM PM 
  E  S  S  S  S  S  S  S  S  S  S  S  S  S  S  S  S  S  S  S  S  S  S  S  S  S  
--------------------------------------------------------------------------------
--------------------------------------------------------------------------------
--------------------------------------------------------------------------------
--5-----------------------------------------------------------------------------
--3--3--3--3--3--3--3--3--3--3--3--3--3--3--3--3--3--3--3--3--3--3--3--3--3--3--
--------------------------------------------------------------------------------


                                                    PM PM PM PM              
  W                H.              W                E  E  E  E  E  E  E  E   
--------------------------------|-------------------------------------------|
--------------------------------|-------------------------------------------|
--------------------------------|--7----------------------------7--6--4-----|
--5----------------L------------|--7----------------------4--5-----------7--|
--5----------------L------------|--5----------------4--5--------------------|
--3----------------L------------|-------------------------------------------|


     PM PM PM PM             PM PM PM PM           
  E  S  S  S  S  H        E  S  S  S  S  H         
--------------------------------------------------|
--------------------------------------------------|
--------------------------------------------------|
--9--------------9--------9--------------9--------|
--7--7--7--7--7--7--------7--7--7--7--7--7--------|
--------------------------------------------------|


     PM PM PM PM PM PM PM PM PM PM PM PM PM PM PM PM PM PM PM PM PM PM PM PM PM 
  E  S  S  S  S  S  S  S  S  S  S  S  S  S  S  S  S  S  S  S  S  S  S  S  S  S  
--------------------------------------------------------------------------------
--------------------------------------------------------------------------------
--------------------------------------------------------------------------------
--5-----------------------------------------------------------------------------
--3--3--3--3--3--3--3--3--3--3--3--3--3--3--3--3--3--3--3--3--3--3--3--3--3--3--
--------------------------------------------------------------------------------


                                                    PM PM PM PM              
  W                H.              W                E  E  E  E  E  E  E  E   
--------------------------------|-------------------------------------------|
--------------------------------|-------------------------------------------|
--------------------------------|--7----------------------------7--6--4-----|
--5----------------L------------|--7----------------------4--5-----------7--|
--5----------------L------------|--5----------------4--5--------------------|
--3----------------L------------|-------------------------------------------|


  W                   W                 
-------------------|-------------------|
-------------------|-------------------|
--4----------------|--L----------------|
--4----------------|--L----------------|
--2----------------|--L----------------|
-------------------|-------------------|


     PM PM PM PM             PM PM PM PM                               
  E  S  S  S  S  H        E  S  S  S  S  H           W                 
--------------------------------------------------|-------------------|
--------------------------------------------------|-------------------|
--------------------------------------------------|--7----------------|
--9--------------9--------9--------------9--------|--7----------------|
--7--7--7--7--7--7--------7--7--7--7--7--7--------|--5----------------|
--------------------------------------------------|-------------------|


                         PM PM PM PM             PM PM PM PM           
  W                   E  S  S  S  S  H        E  S  S  S  S  H         
-------------------|--------------------------------------------------|
-------------------|--------------------------------------------------|
--L----------------|--------------------------------------------------|
--L----------------|--------------------------------------------------|
--L----------------|--5--------------5--------5--------------5--------|
-------------------|--3--3--3--3--3--3--------3--3--3--3--3--3--------|


     PM PM PM PM    PM PM              PM PM PM PM    PM PM         
  E  S  S  S  S  E  S  S  Q.        E  S  S  S  S  E  S  S  Q.      
---------------------------------|---------------------------------|
---------------------------------|---------------------------------|
---------------------------------|---------------------------------|
---------------------------------|--7--------------7--------7------|
--7--------------7--------7------|--5--5--5--5--5--5--5--5--5------|
--5--5--5--5--5--5--5--5--5------|---------------------------------|


     PM PM PM PM    PM PM              PM PM PM PM    PM PM         
  E  S  S  S  S  E  S  S  Q.        E  S  S  S  S  E  S  S  Q.      
---------------------------------|---------------------------------|
---------------------------------|---------------------------------|
---------------------------------|---------------------------------|
---------------------------------|---------------------------------|
--5--------------5--------5------|--2--------------2--------2------|
--3--3--3--3--3--3--3--3--3------|--0--0--0--0--0--0--0--0--0------|


     PM PM PM PM    PM PM              PM PM PM PM    PM PM         
  E  S  S  S  S  E  S  S  Q.        E  S  S  S  S  E  S  S  Q.      
---------------------------------|---------------------------------|
---------------------------------|---------------------------------|
---------------------------------|---------------------------------|
---------------------------------|---------------------------------|
--7--------------7--------7------|--7--------------7--------7------|
--5--5--5--5--5--5--5--5--5------|--5--5--5--5--5--5--5--5--5------|


                      PM PM PM PM             
  W                   E  E  E  E  E  E  Q     
-------------------|-------------------------|
-------------------|-------------------------|
--7----------------|--------------7----------|
--7----------------|--------------7----------|
--5----------------|--5--5--5--5--5----------|
-------------------|-------------------------|


     PM PM PM PM             PM PM PM PM           
  E  S  S  S  S  H        E  S  S  S  S  H         
--------------------------------------------------|
--------------------------------------------------|
--------------------------------------------------|
--9--------------9--------9--------------9--------|
--7--7--7--7--7--7--------7--7--7--7--7--7--------|
--------------------------------------------------|


     PM PM PM PM PM PM PM PM PM PM PM PM PM PM PM PM PM PM PM PM PM PM PM PM PM 
  E  S  S  S  S  S  S  S  S  S  S  S  S  S  S  S  S  S  S  S  S  S  S  S  S  S  
--------------------------------------------------------------------------------
--------------------------------------------------------------------------------
--------------------------------------------------------------------------------
--------------------------------------------------------------------------------
--7--7--7--7--7--7--7--7--7--7--7--7--7--7--7--7--7--7--7--7--7--7--7--7--7--7--
--8-----------------------------------------------------------------------------


                                                    PM PM PM PM              
  W                H.              W                E  E  E  E  E  E  E  E   
--------------------------------|-------------------------------------------|
--------------------------------|-------------------------------------------|
--------------------------------|--7----------------------------7--6--4-----|
--5----------------L------------|--7----------------------4--5-----------7--|
--5----------------L------------|--5----------------4--5--------------------|
--3----------------L------------|-------------------------------------------|


     PM PM PM PM             PM PM PM PM           
  E  S  S  S  S  H        E  S  S  S  S  H         
--------------------------------------------------|
--------------------------------------------------|
--------------------------------------------------|
--9--------------9--------9--------------9--------|
--7--7--7--7--7--7--------7--7--7--7--7--7--------|
--------------------------------------------------|


     PM PM PM PM PM PM PM PM PM PM PM PM PM PM PM PM PM PM PM PM PM PM PM PM PM 
  E  S  S  S  S  S  S  S  S  S  S  S  S  S  S  S  S  S  S  S  S  S  S  S  S  S  
--------------------------------------------------------------------------------
--------------------------------------------------------------------------------
--------------------------------------------------------------------------------
--5-----------------------------------------------------------------------------
--3--3--3--3--3--3--3--3--3--3--3--3--3--3--3--3--3--3--3--3--3--3--3--3--3--3--
--------------------------------------------------------------------------------


                                                    PM PM PM PM              
  W                H.              W                E  E  E  E  E  E  E  E   
--------------------------------|-------------------------------------------|
--------------------------------|-------------------------------------------|
--------------------------------|--7----------------------------7--6--4-----|
--5----------------L------------|--7----------------------4--5-----------7--|
--5----------------L------------|--5----------------4--5--------------------|
--3----------------L------------|-------------------------------------------|


  W                   W                 
-------------------|-------------------|
-------------------|-------------------|
--4----------------|--L----------------|
--4----------------|--L----------------|
--2----------------|--L----------------|
-------------------|-------------------|


     PM PM PM PM             PM PM PM PM                               
  E  S  S  S  S  H        E  S  S  S  S  H           W                 
--------------------------------------------------|-------------------|
--------------------------------------------------|-------------------|
--------------------------------------------------|--7----------------|
--9--------------9--------9--------------9--------|--7----------------|
--7--7--7--7--7--7--------7--7--7--7--7--7--------|--5----------------|
--------------------------------------------------|-------------------|


                         PM PM PM PM             PM PM PM PM           
  W                   E  S  S  S  S  H        E  S  S  S  S  H         
-------------------|--------------------------------------------------|
-------------------|--------------------------------------------------|
-------------------|--------------------------------------------------|
-------------------|--------------------------------------------------|
-------------------|--5--------------5--------5--------------5--------|
--2----------------|--3--3--3--3--3--3--------3--3--3--3--3--3--------|


     PM PM PM PM    PM PM              PM PM PM PM    PM PM         
  E  S  S  S  S  E  S  S  Q.        E  S  S  S  S  E  S  S  Q.      
---------------------------------|---------------------------------|
---------------------------------|---------------------------------|
---------------------------------|---------------------------------|
---------------------------------|--7--------------7--------7------|
--7--------------7--------7------|--5--5--5--5--5--5--5--5--5------|
--5--5--5--5--5--5--5--5--5------|---------------------------------|


     PM PM PM PM    PM PM              PM PM PM PM    PM PM         
  E  S  S  S  S  E  S  S  Q.        E  S  S  S  S  E  S  S  Q.      
---------------------------------|---------------------------------|
---------------------------------|---------------------------------|
---------------------------------|---------------------------------|
---------------------------------|---------------------------------|
--5--------------5--------5------|--2--------------2--------2------|
--3--3--3--3--3--3--3--3--3------|--0--0--0--0--0--0--0--0--0------|


     PM PM PM PM    PM PM              PM PM PM PM    PM PM         
  E  S  S  S  S  E  S  S  Q.        E  S  S  S  S  E  S  S  Q.      
---------------------------------|---------------------------------|
---------------------------------|---------------------------------|
---------------------------------|---------------------------------|
---------------------------------|---------------------------------|
--7--------------7--------7------|--7--------------7--------7------|
--5--5--5--5--5--5--5--5--5------|--5--5--5--5--5--5--5--5--5------|


                      PM PM PM PM                               
  W                   E  E  E  E  H           W                 
-------------------|-----------------------|-------------------|
-------------------|-----------------------|-------------------|
--7----------------|--------------7--------|-------------------|
--7----------------|--------------7--------|-------------------|
--5----------------|--5--5--5--5--5--------|--5----------------|
-------------------|-----------------------|--3----------------|


  W                   W                   W                   W                 
-------------------|-------------------|-------------------|-------------------|
-------------------|-------------------|-------------------|-------------------|
-------------------|-------------------|-------------------|-------------------|
-------------------|-------------------|--4----------------|--5----------------|
--5----------------|--2----------------|--2----------------|--3----------------|
--2----------------|--0----------------|-------------------|-------------------|


  W                   Q    Q    Q    Q       Q    Q    Q    Q      
-------------------|----------------------|-----------------------|
-------------------|----------------------|-----------------------|
-------------------|----------------------|-----------------2~----|
-------------------|----------------------|--2----4----5----------|
--5----------------|--0----2----3----5----|-----------------------|
--3----------------|----------------------|-----------------------|


  W                   W                   W                   W                 
-------------------|-------------------|-------------------|-------------------|
-------------------|-------------------|-------------------|-------------------|
-------------------|-------------------|-------------------|-------------------|
-------------------|-------------------|-------------------|--4----------------|
--5----------------|--5----------------|--2----------------|--2----------------|
--3----------------|--2----------------|--0----------------|-------------------|


  H        H           W                   W                 
--------------------|-------------------|-------------------|
--------------------|-------------------|-------------------|
--------------------|-------------------|-------------------|
--5--------L--------|--7----------------|-------------------|
--3--------2--------|--5----------------|--5----------------|
--------------------|-------------------|--3----------------|


                                |-----3-----|     
  W                   H         Q     Q     Q     
-------------------|-----------------------------|
-------------------|-----------------------------|
-------------------|--9--------11----12----11----|
-------------------|-----------------------------|
--L----------------|-----------------------------|
--L----------------|-----------------------------|


  |------3-----|         |----3----|                       |-----3-----|     
  Q       Q    Q    Q    Q    Q    Q    Q        H         Q     Q     Q     
---------------------------------------------|------------------------------|
---------------------------------------------|------------------------------|
--9----9g11----L----L------------------------|--11--------12----14----12----|
-------------------------9----9----L----L----|------------------------------|
---------------------------------------------|------------------------------|
---------------------------------------------|------------------------------|


   |-----3----|    |--3--|   |-3-|     
   Q     Q    Q    Q     E   E   Q     
--------------------------------------|
--------------------------------------|
--11----12----L----L------------12----|
----------------------------14--------|
------------------------14------------|
--------------------------------------|


                     |-----3-----|         |----3----|          
   Q     S  S  Q     Q     Q     Q    Q    Q    Q    Q    Q     
---------------------------------------------------------------|
--13----13-13-13----12----10----12----L------------------------|
-------------------------------------------9----9----L----L----|
---------------------------------------------------------------|
---------------------------------------------------------------|
---------------------------------------------------------------|


   |-----3-----|     |-----3-----|     |-----3-----|     
   Q     Q     Q     Q     Q     Q     Q     Q     Q     
--------------------15----14----------------------------|
--------14----17----------------17----16----17----19----|
--15----------------------------------------------------|
--------------------------------------------------------|
--------------------------------------------------------|
--------------------------------------------------------|


  Q     S  S  E   H         
-------------19~--L--------|
--L-------19---------------|
-------19------------------|
---------------------------|
---------------------------|
---------------------------|


                       |-----3-----|          |-----3----|        
   Q     S  S  Q.      Q     Q     Q    Q     Q     Q    Q    E   
--15----15-15-15------14----12----14----L------------------------|
---------------------------------------------12----12----L----L--|
-----------------------------------------------------------------|
-----------------------------------------------------------------|
-----------------------------------------------------------------|
-----------------------------------------------------------------|


   |---3---|   |-3-|     |-----3-----|     |-----3-----|     
   E   E   E   E   Q     Q     Q     Q     Q     Q     Q     
--15--15--14--14--12----11----------------------------------|
------------------------------13----12----------------------|
------------------------------------------14----12----12----|
------------------------------------------------------------|
------------------------------------------------------------|
------------------------------------------------------------|


        |----3---|            
  Q     E    E   E  H         
-----------------------------|
-----------------------------|
--L----12h--14---L--9--------|
-----------------------------|
-----------------------------|
-----------------------------|


   |-----3-----|     |-----3-----|     |-----3-----|     
   Q     Q     Q     Q     Q     Q     Q     Q     Q     
--------------------------12----15----12----------------|
--------------------13----------------------13----------|
--------------12----------------------------------------|
--------14----------------------------------------14----|
--15----------------------------------------------------|
--------------------------------------------------------|


   |-----3-----|     |-----3-----|     
   Q     Q     Q     Q     Q     Q     
--------------12----------------------|
--------12----------12----------------|
--12----------------------12----------|
--------------------------------14----|
--------------------------------------|
--------------------------------------|


   |-----3-----|     |-----3-----|     |-----3-----|                          
   Q     Q     Q     Q     Q     Q     Q     Q     Q        W                 
--------------------15----14-----------------------------|-------------------|
--------14----17----------------17----16----17----19~----|--L----------------|
--15-----------------------------------------------------|-------------------|
---------------------------------------------------------|-------------------|
---------------------------------------------------------|-------------------|
---------------------------------------------------------|-------------------|


   E   E   Q     S  S  S  S S E.   
----------------------------------|
--12--12--12----12--L-10-10-8-L---|
----------------------------------|
----------------------------------|
----------------------------------|
----------------------------------|


                                     3             
   S  S  S  S S E.   S  S S S S  E.  H.            
--------------------------------------------------|
--12--L-10-10-8-L---10--L-8-8-7~-L---L------------|
--------------------------------------------------|
--------------------------------------------------|
--------------------------------------------------|
--------------------------------------------------|


   E   S  S  Q     S  S  S  S  S E.      S  S  S  S  S E.  E   E   H         
-------------------------------------|--------------------------------------|
--13--13--L-13----13--L-12-12-10-L---|--13--L-12-12-10-L---8--10--12--------|
-------------------------------------|--------------------------------------|
-------------------------------------|--------------------------------------|
-------------------------------------|--------------------------------------|
-------------------------------------|--------------------------------------|


   E   E   Q     S  S  S  S  S E.      S  S  S  S  S E.   S  S  S  S  S E.   
-----------------------------------|----------------------------------------|
--15--15--15----17--L-15-15-13-L---|--17--L-15-15-13-L---15--L-13-13-12-L---|
-----------------------------------|----------------------------------------|
-----------------------------------|----------------------------------------|
-----------------------------------|----------------------------------------|
-----------------------------------|----------------------------------------|


   S  S  S  S  S E.   E   E   E   E   
-------------------------------------|
--15--L-13-13-12-L---15--17--15--13--|
-------------------------------------|
-------------------------------------|
-------------------------------------|
-------------------------------------|


   E   E   E   E   E  E   S   S   S   S  H          
---------------------------------------------------|
--15--13--12---------------------------------------|
--------------14--12-----11h-12p-11h-12-12~--------|
---------------------------------------------------|
---------------------------------------------------|
---------------------------------------------------|


   E   E   Q     S  S  S  S S E.   
----------------------------------|
--12--12--12----12--L-10-10-8-L---|
----------------------------------|
----------------------------------|
----------------------------------|
----------------------------------|


                                       3             
   S  S  S  S S E.   S  S  S  S S  E.  H.            
----------------------------------------------------|
--12--L-10-10-8-L---12--L-10-10-7~-L---L------------|
----------------------------------------------------|
----------------------------------------------------|
----------------------------------------------------|
----------------------------------------------------|


   E   S S  Q     S  S  S  S  S E.      S  S  S  S  S E.  E   E   H         
------------------------------------|--------------------------------------|
--13--13-L-13----13--L-12-12-10-L---|--13-13-12-12-10-L---8--10--12--------|
------------------------------------|--------------------------------------|
------------------------------------|--------------------------------------|
------------------------------------|--------------------------------------|
------------------------------------|--------------------------------------|


   E   E   Q     S  S  S  S  S E.      S  S  S  S  S E.   S  S  S  S  S E.   
-----------------------------------|----------------------------------------|
--15--15--15----17--L-15-15-13-L---|--17--L-15-15-13-L---15--L-13-13-12-L---|
-----------------------------------|----------------------------------------|
-----------------------------------|----------------------------------------|
-----------------------------------|----------------------------------------|
-----------------------------------|----------------------------------------|


   S  S  S  S  S E.   E   E   E   E      E   E   E   E   E  E   Q     H         
-------------------------------------|-----------------------------------------|
--15--L-13-13-12-L---15--17--15--13--|--15--13--12-----------------------------|
-------------------------------------|--------------14--12-----11----12--------|
-------------------------------------|-----------------------------------------|
-------------------------------------|-----------------------------------------|
-------------------------------------|-----------------------------------------|


  PM  PM PM PM  PM PM PM  PM PM PM  PM  PM PM PM  
  E.  S  S  E.  S  S  E.  S  S  E.  E.  S  S  S   
-------------------------------------------------|
-------------------------------------------------|
-------------------------------------------------|
-------------------------------------------------|
-------------------------------------------------|
--0---0--0--0---0--0--0---0--0--0---0---0--0--0--|


  PM  PM PM PM  PM PM PM  PM PM PM  PM PM PM  PM    PM PM PM  PM PM PM  
  E.  S  S  E.  S  S  E.  S  S  E.  S  S  E.  S     S  S  E.  S  S  S   
-------------------------------------------------|---------------------|
-------------------------------------------------|---------------------|
-------------------------------------------------|---------------------|
-------------------------------------------------|---------------------|
--2---2--2--2---2--2--2---2--2--2---2--2--2---2--|--2--2--2---2--2--2--|
-------------------------------------------------|---------------------|


  PM  PM PM PM  PM PM PM  PM PM PM  PM  PM PM PM  
  E.  S  S  E.  S  S  E.  S  S  E.  E.  S  S  S   
-------------------------------------------------|
-------------------------------------------------|
-------------------------------------------------|
-------------------------------------------------|
-------------------------------------------------|
--0---0--0--0---0--0--0---0--0--0---0---0--0--0--|


  PM  PM PM PM  PM PM PM  PM PM PM  PM PM PM  PM    PM PM PM  PM PM PM  
  E.  S  S  E.  S  S  E.  S  S  E.  S  S  E.  S     S  S  E.  S  S  S   
-------------------------------------------------|---------------------|
-------------------------------------------------|---------------------|
-------------------------------------------------|---------------------|
-------------------------------------------------|---------------------|
--2---2--2--2---2--2--2---2--2--2---2--2--2---2--|--2--2--2---2--2--2--|
-------------------------------------------------|---------------------|


  W                   W                   W                 
-------------------|-------------------|-------------------|
-------------------|-------------------|-------------------|
-------------------|-------------------|-------------------|
--5----------------|--7----------------|--4----------------|
--3----------------|--5----------------|--6----------------|
-------------------|-------------------|-------------------|


  H        H           H        H           H        H           H         
--------------------|--------------------|--------------------|-----------|
--------------------|--------------------|--------------------|-----------|
--------------------|--------------------|--------------------|-----------|
--9--------7--------|--5--------4--------|--------------------|--7--------|
--7--------5--------|--3--------2--------|--7--------5--------|--5--------|
--------------------|--------------------|--5--------3--------|-----------|


                                       PM PM PM PM           PM PM  
  H        H           H.              S  S  S  S  Q    Q    E  E   
--------------------|---------------|------------------------------|
--------------------|---------------|------------------------------|
--------------------|---------------|------------------------------|
--L-----------------|---------------|--1--1--1--1------------1--1--|
--L--------9--------|--L------------|--2--2--2--2------------2--2--|
-----------7--------|--L------------|------------------------------|


  PM PM PM PM      PM PM      PM PM                                          
  S  S  S  S  Q    S  S  Q    S  S     W                   W                 
------------------------------------|-------------------|-------------------|
------------------------------------|-------------------|-------------------|
------------------------------------|-------------------|-------------------|
--1--1--1--1-------1--1-------1--1--|-------------------|-------------------|
--2--2--2--2-------2--2-------2--2--|--2----------------|--L----------------|
------------------------------------|--0----------------|--L----------------|


  PM PM PM PM           PM PM    PM PM PM PM      PM PM      PM PM  
  S  S  S  S  Q    Q    E  E     S  S  S  S  Q    S  S  Q    S  S   
------------------------------|------------------------------------|
------------------------------|------------------------------------|
------------------------------|------------------------------------|
--4--4--4--4------------4--4--|--4--4--4--4-------4--4-------4--4--|
--5--5--5--5------------5--5--|--5--5--5--5-------5--5-------5--5--|
------------------------------|------------------------------------|


  W                   W                 
-------------------|-------------------|
-------------------|-------------------|
-------------------|-------------------|
-------------------|-------------------|
--5----------------|--L----------------|
--3----------------|--L----------------|


     PM PM PM PM    PM PM PM PM    PM PM  
  E  S  S  S  S  E  S  S  S  S  E  S  S   
-----------------------------------------|
-----------------------------------------|
-----------------------------------------|
--5--------------5--------------5--------|
--3--3--3--3--3--3--3--3--3--3--3--3--3--|
-----------------------------------------|


     PM PM PM PM    PM PM PM PM    PM PM        PM  
  E  S  S  S  S  E  S  S  S  S  E  S  S     S S E   
-----------------------------------------|---------|
-----------------------------------------|---------|
-----------------------------------------|---------|
--7--------------7--------------7--------|--4------|
--5--5--5--5--5--5--5--5--5--5--5--5--5--|--6-6-6--|
-----------------------------------------|---------|


     PM PM PM PM    PM PM PM PM    PM PM                         
  E  S  S  S  S  E  S  S  S  S  E  S  S     H         H          
-----------------------------------------|----------------------|
-----------------------------------------|----------------------|
-----------------------------------------|----------------------|
--4--------------4--------------4--------|----------------------|
--6--6--6--6--6--6--6--6--6--6--6--6--6--|--7~--------5~--------|
-----------------------------------------|----------------------|


  H         H            H         H         H          
----------------------|--------------------------------|
----------------------|--------------------------------|
----------------------|--------------------------------|
----------------------|--------------------------------|
--3~--------2~--------|----------------------9~--------|
----------------------|--5~--------3~------------------|


  H        W                     E   E   E   E   E   E   S   S   E   
-----------------------------|--15------15------17--15--17p-15p-14--|
-----------------------------|------17------17----------------------|
-----------------------------|--------------------------------------|
-----------------------------|--------------------------------------|
--L--------------------------|--------------------------------------|
-----------7~----------------|--------------------------------------|


   E   E   E   E   E   E   S   S   E   
--14------14------15--14--15p-14p-12--|
------15------15----------------------|
--------------------------------------|
--------------------------------------|
--------------------------------------|
--------------------------------------|


   E   E   E   E   E   E   S   S   E  E   Q     Q.      
--12------12------14--12--14p-12p-11--L--------11------|
------13------13-------------------------12------------|
-------------------------------------------------------|
-------------------------------------------------------|
-------------------------------------------------------|
-------------------------------------------------------|


   E   E   E   E   E   E   S   S   E      E   E   E   E   E   E   S   S   E   
--15------15------17--15--17p-15p-14--|--14------14------15--14--15p-14p-12--|
------17------17----------------------|------15------15----------------------|
--------------------------------------|--------------------------------------|
--------------------------------------|--------------------------------------|
--------------------------------------|--------------------------------------|
--------------------------------------|--------------------------------------|


   E   E   E   E   E   E   S   S   E  E   Q     Q.      
--12------12------14--12--14p-12p-11--L--------11------|
------13------13-------------------------12------------|
-------------------------------------------------------|
-------------------------------------------------------|
-------------------------------------------------------|
-------------------------------------------------------|


   E   E   E   E   E   E   S   S   E      E   E   E   E   E   E   S   S   E   
--15------15------17--15--17p-15p-14--|--14------14------15--14--15p-14p-12--|
------17------17----------------------|------15------15----------------------|
--------------------------------------|--------------------------------------|
--------------------------------------|--------------------------------------|
--------------------------------------|--------------------------------------|
--------------------------------------|--------------------------------------|


   E   E   E   E   E   E   S   S   E  E   Q     Q.      
--12------12------14--12--14p-12p-11--L--------11------|
------13------13-------------------------12------------|
-------------------------------------------------------|
-------------------------------------------------------|
-------------------------------------------------------|
-------------------------------------------------------|


   E   E   E   E   E   E   S   S   E      E   E   E   E   E   E   S   S   E   
--15------15------17--15--17p-15p-14--|--14------14------15--14--15p-14p-12--|
------17------17----------------------|------15------15----------------------|
--------------------------------------|--------------------------------------|
--------------------------------------|--------------------------------------|
--------------------------------------|--------------------------------------|
--------------------------------------|--------------------------------------|


   E   E   E   E   E   E   S   S   E  E   Q     Q.      
--12------12------14--12--14p-12p-11--L--------11------|
------13------13-------------------------12------------|
-------------------------------------------------------|
-------------------------------------------------------|
-------------------------------------------------------|
-------------------------------------------------------|


   Q     Q     Q     Q     Q     Q     Q     Q        Q     Q     Q     Q     
--------------------11----------------------11----|--------------------11----|
--12----------12----------12----------12----------|--12----------12----------|
--------11----------------------11----------------|--------11----------------|
--------------------------------------------------|--------------------------|
--------------------------------------------------|--------------------------|
--------------------------------------------------|--------------------------|


   W                   W                   W                 
--------------------|-------------------|-------------------|
--------------------|-------------------|-------------------|
--12----------------|--4----------------|--L----------------|
--------------------|--4----------------|--L----------------|
--------------------|--2----------------|--L----------------|
--------------------|-------------------|-------------------|


     PM PM PM PM             PM PM PM PM                               
  E  S  S  S  S  H        E  S  S  S  S  H           W                 
--------------------------------------------------|-------------------|
--------------------------------------------------|-------------------|
--------------------------------------------------|--7----------------|
--9--------------9--------9--------------9--------|--7----------------|
--7--7--7--7--7--7--------7--7--7--7--7--7--------|--5----------------|
--------------------------------------------------|-------------------|


                         PM PM PM PM             PM PM PM PM           
  W                   E  S  S  S  S  H        E  S  S  S  S  H         
-------------------|--------------------------------------------------|
-------------------|--------------------------------------------------|
--L----------------|--------------------------------------------------|
--L----------------|--------------------------------------------------|
--L----------------|--5--------------5--------5--------------5--------|
-------------------|--3--3--3--3--3--3--------3--3--3--3--3--3--------|


     PM PM PM PM    PM PM              PM PM PM PM    PM PM         
  E  S  S  S  S  E  S  S  Q.        E  S  S  S  S  E  S  S  Q.      
---------------------------------|---------------------------------|
---------------------------------|---------------------------------|
---------------------------------|---------------------------------|
---------------------------------|--7--------------7--------7------|
--7--------------7--------7------|--5--5--5--5--5--5--5--5--5------|
--5--5--5--5--5--5--5--5--5------|---------------------------------|


     PM PM PM PM    PM PM              PM PM PM PM    PM PM         
  E  S  S  S  S  E  S  S  Q.        E  S  S  S  S  E  S  S  Q.      
---------------------------------|---------------------------------|
---------------------------------|---------------------------------|
---------------------------------|---------------------------------|
---------------------------------|---------------------------------|
--5--------------5--------5------|--2--------------2--------2------|
--3--3--3--3--3--3--3--3--3------|--0--0--0--0--0--0--0--0--0------|


     PM PM PM PM    PM PM              PM PM PM PM    PM PM         
  E  S  S  S  S  E  S  S  Q.        E  S  S  S  S  E  S  S  Q.      
---------------------------------|---------------------------------|
---------------------------------|---------------------------------|
---------------------------------|---------------------------------|
---------------------------------|---------------------------------|
--7--------------7--------7------|--7--------------7--------7------|
--5--5--5--5--5--5--5--5--5------|--5--5--5--5--5--5--5--5--5------|


                      PM PM PM PM                               
  W                   E  E  E  E  H           W                 
-------------------|-----------------------|-------------------|
-------------------|-----------------------|-------------------|
--7----------------|--------------7--------|-------------------|
--7----------------|--------------7--------|-------------------|
--5----------------|--5--5--5--5--5--------|--5----------------|
-------------------|-----------------------|--3----------------|


  W                   W                   W                   W                 
-------------------|-------------------|-------------------|-------------------|
-------------------|-------------------|-------------------|-------------------|
-------------------|-------------------|-------------------|-------------------|
-------------------|-------------------|--4----------------|--5----------------|
--5----------------|--2----------------|--2----------------|--3----------------|
--2----------------|--0----------------|-------------------|-------------------|


  W                   Q    Q    Q    Q       Q    Q    Q    Q      
-------------------|----------------------|-----------------------|
-------------------|----------------------|-----------------------|
-------------------|----------------------|-----------------2~----|
-------------------|----------------------|--2----4----5----------|
--5----------------|--0----2----3----5----|-----------------------|
--3----------------|----------------------|-----------------------|


  W                   W                   W                   W                 
-------------------|-------------------|-------------------|-------------------|
-------------------|-------------------|-------------------|-------------------|
-------------------|-------------------|-------------------|-------------------|
-------------------|-------------------|-------------------|--4----------------|
--5----------------|--5----------------|--2----------------|--2----------------|
--3----------------|--2----------------|--0----------------|-------------------|


  H        H           W                   W                 
--------------------|-------------------|-------------------|
--------------------|-------------------|-------------------|
--------------------|-------------------|-------------------|
--5--------L--------|--7----------------|-------------------|
--3--------2--------|--5----------------|--5----------------|
--------------------|-------------------|--3----------------|


  W                   W                   W                   W                 
-------------------|-------------------|-------------------|-------------------|
-------------------|-------------------|-------------------|-------------------|
-------------------|-------------------|-------------------|-------------------|
-------------------|-------------------|-------------------|-------------------|
--L----------------|--5----------------|--5----------------|--2----------------|
--L----------------|--3----------------|--2----------------|--0----------------|


  W                   W                   W                 
-------------------|-------------------|-------------------|
-------------------|-------------------|-------------------|
-------------------|-------------------|-------------------|
--4----------------|--5----------------|-------------------|
--2----------------|--3----------------|--5----------------|
-------------------|-------------------|--3----------------|


  Q    Q    Q    Q       Q    Q    Q    Q        W                 
----------------------|-----------------------|-------------------|
----------------------|-----------------------|-------------------|
----------------------|-----------------2~----|-------------------|
----------------------|--2----4----5----------|-------------------|
--0----2----3----5----|-----------------------|--5----------------|
----------------------|-----------------------|--3----------------|


  W                   W                   W                 
-------------------|-------------------|-------------------|
-------------------|-------------------|-------------------|
-------------------|-------------------|-------------------|
-------------------|-------------------|--4----------------|
--5----------------|--2----------------|--2----------------|
--2----------------|--0----------------|-------------------|


                                                    SUUUUUUUUUUUUUUUUUNNN!!!  
  H        H           W                   W                                  
--------------------|-------------------|------------------------------------|
--------------------|-------------------|------------------------------------|
--------------------|-------------------|------------------------------------|
--5--------L--------|--7----------------|--5---------------------------------|
--3--------2--------|--5----------------|--3---------------------------------|
--------------------|-------------------|------------------------------------|


  W                   W                   W                   W                 
-------------------|-------------------|-------------------|-------------------|
-------------------|-------------------|-------------------|-------------------|
-------------------|-------------------|-------------------|-------------------|
--L----------------|--L----------------|-------------------|-------------------|
--L----------------|--L----------------|--5----------------|--L----------------|
-------------------|-------------------|--3----------------|--L----------------|


  W                   W                   W                 
-------------------|-------------------|-------------------|
-------------------|-------------------|-------------------|
-------------------|-------------------|-------------------|
-------------------|-------------------|-------------------|
--L----------------|--L----------------|--L----------------|
--L----------------|--L----------------|--L----------------|


  H        H                      
--------------------|-----------||
--------------------|-----------||
--------------------|-----------||
--------------------|-----------||
--5-----------------|-----------||
--3-----------------|-----------||




Duration Legend
---------------
W - whole
H - half
Q - quarter
E - 8th
S - 16th
T - 32nd
X - 64th
. - note dotted
|-n-|  - n-tuplets


Tablature Legend
----------------
L - tied note
x - dead note
g - grace note
(n) - ghost note
> - accentuded note
NH - natural harmonic
AH - artificial harmonic
TH - tapped harmonic
SH - semi harmonic
PH - pitch harmonic
h - hammer on
p - pull off
b - bend
br - bendRelease
pb - preBend
pbr - preBendRelease
brb - bendReleaseBend
\n/ - tremolo bar dip
\n - tremolo bar dive
-/n - tremolo bar Release up
/n\ - tremolo bar inverted dip
/n - tremolo bar return
-\n - tremolo bar Release down
S - shift slide
s - legato slide
/ -  slide into from below or out of upwards
\ -  slide into from above or out of downwards
~ - vibrato
W - wide vibrato
tr - trill
TP - tremolo picking
T - tapping
S - slap
P - pop
< - fade in
^ - brush up
v - brush down


  
N. Dahlin Guitar 2
Enjoy it!



                PM PM PM PM                                                
                                            |----3----|    |----3----|     
             E  S  S  S  S  H        E      Q    Q    Q    Q    Q    Q     
E||-------|-----------------------------|---------------------------------|
B||-------|-----------------------------|---------------------------------|
G||-------|-----------------------------|---------------------------------|
D||-------|--9--------------9--------L--|--/9----7----5-------------------|
A||-------|--7--7--7--7--7--7--------L--|------------------9----7---------|
E||-------|-----------------------------|----------------------------9----|


     PM PM PM PM                                        
  E  S  S  S  S  H            Q    Q    Q    H          
--------------------------|----------------------------|
--------------------------|----------------------------|
--------------------------|----------------------------|
--5--------------5--------|--/5----4----L--------------|
--3--3--3--3--3--3--------|------------------5~--------|
--------------------------|----------------------------|


     PM PM PM PM                                                
                                 |----3----|    |----3----|     
  E  S  S  S  S  H        E      Q    Q    Q    Q    Q    Q     
-----------------------------|---------------------------------|
-----------------------------|---------------------------------|
-----------------------------|---------------------------------|
--9--------------9--------L--|--/9----7----5-------------------|
--7--7--7--7--7--7--------L--|------------------9----7---------|
-----------------------------|----------------------------9----|


     PM PM PM PM                                                             
  E  S  S  S  S  H            Q    Q    Q    H            H.           Q     
--------------------------|----------------------------|--------------------|
--------------------------|----------------------------|--------------------|
--------------------------|----------------------------|--------------------|
--5--------------5--------|--/5----4----L--------------|--------------------|
--3--3--3--3--3--3--------|------------------5~--------|--0------------2----|
--------------------------|----------------------------|--------------------|


  H        H           W                    W                  
--------------------|-------------------|---------------------|
--------------------|-------------------|---------------------|
--------------------|-------------------|---------------------|
--------------------|-------------------|--/5~----------------|
--3--------2--------|--L----------------|---------------------|
--------------------|--0----------------|---------------------|


     PM PM PM PM    PM                                            
                                   |----3----|    |----3----|     
  E  S  S  S  S  E  E  Q    E      Q    Q    Q    Q    Q    Q     
-------------------------------|---------------------------------|
-------------------------------|---------------------------------|
-------------------------------|---------------------------------|
--9--------------9-----9----L--|--/9----7----5-------------------|
--7--7--7--7--7--7--7--7----L--|------------------9----7---------|
-------------------------------|----------------------------9----|


     PM PM PM PM                                        
  E  S  S  S  S  H            Q    Q    Q    H          
--------------------------|----------------------------|
--------------------------|----------------------------|
--------------------------|----------------------------|
--5--------------5--------|--/5----4----L--------------|
--3--3--3--3--3--3--------|------------------5~--------|
--------------------------|----------------------------|


     PM PM PM PM    PM                                            
                                   |----3----|    |----3----|     
  E  S  S  S  S  E  E  Q    E      Q    Q    Q    Q    Q    Q     
-------------------------------|---------------------------------|
-------------------------------|---------------------------------|
-------------------------------|---------------------------------|
--9--------------9-----9----L--|--/9----7----5-------------------|
--7--7--7--7--7--7--7--7----L--|------------------9----7---------|
-------------------------------|----------------------------9----|


     PM PM PM PM                                                             
  E  S  S  S  S  H            Q    Q    Q    H            H.           Q     
--------------------------|----------------------------|--------------------|
--------------------------|----------------------------|--------------------|
--------------------------|----------------------------|--------------------|
--5--------------5--------|--/5----4----L--------------|--------------------|
--3--3--3--3--3--3--------|------------------5~--------|--0------------2----|
--------------------------|----------------------------|--------------------|


  H        H           W                    W                  
--------------------|-------------------|---------------------|
--------------------|-------------------|---------------------|
--------------------|-------------------|---------------------|
--------------------|-------------------|--/5~----------------|
--3--------2--------|--L----------------|---------------------|
--------------------|--0----------------|---------------------|


     PM PM PM PM             PM PM PM PM           
  E  S  S  S  S  H        E  S  S  S  S  H         
--------------------------------------------------|
--------------------------------------------------|
--------------------------------------------------|
--9--------------9--------9--------------9--------|
--7--7--7--7--7--7--------7--7--7--7--7--7--------|
--------------------------------------------------|


     PM PM PM PM PM PM PM PM PM PM PM PM PM PM PM PM PM PM PM PM PM PM PM PM PM 
  E  S  S  S  S  S  S  S  S  S  S  S  S  S  S  S  S  S  S  S  S  S  S  S  S  S  
--------------------------------------------------------------------------------
--------------------------------------------------------------------------------
--------------------------------------------------------------------------------
--5-----------------------------------------------------------------------------
--3--3--3--3--3--3--3--3--3--3--3--3--3--3--3--3--3--3--3--3--3--3--3--3--3--3--
--------------------------------------------------------------------------------


                                                    PM PM PM PM              
  W                H.              W                E  E  E  E  E  E  E  E   
--------------------------------|-------------------------------------------|
--------------------------------|-------------------------------------------|
--------------------------------|--7----------------------2--4--4--2--0-----|
--5----------------L------------|--7----------------2--4-----------------4--|
--5----------------L------------|--5----------------------------------------|
--3----------------L------------|-------------------------------------------|


     PM PM PM PM             PM PM PM PM           
  E  S  S  S  S  H        E  S  S  S  S  H         
--------------------------------------------------|
--------------------------------------------------|
--------------------------------------------------|
--9--------------9--------9--------------9--------|
--7--7--7--7--7--7--------7--7--7--7--7--7--------|
--------------------------------------------------|


     PM PM PM PM PM PM PM PM PM PM PM PM PM PM PM PM PM PM PM PM PM PM PM PM PM 
  E  S  S  S  S  S  S  S  S  S  S  S  S  S  S  S  S  S  S  S  S  S  S  S  S  S  
--------------------------------------------------------------------------------
--------------------------------------------------------------------------------
--------------------------------------------------------------------------------
--5-----------------------------------------------------------------------------
--3--3--3--3--3--3--3--3--3--3--3--3--3--3--3--3--3--3--3--3--3--3--3--3--3--3--
--------------------------------------------------------------------------------


                                                    PM PM PM PM              
  W                H.              W                E  E  E  E  E  E  E  E   
--------------------------------|-------------------------------------------|
--------------------------------|-------------------------------------------|
--------------------------------|--7----------------------2--4--4--2--0-----|
--5----------------L------------|--7----------------2--4-----------------4--|
--5----------------L------------|--5----------------------------------------|
--3----------------L------------|-------------------------------------------|


  W                   W                 
-------------------|-------------------|
-------------------|-------------------|
--4----------------|--L----------------|
--4----------------|--L----------------|
--2----------------|--L----------------|
-------------------|-------------------|


     PM PM PM PM             PM PM PM PM                               
  E  S  S  S  S  H        E  S  S  S  S  H           W                 
--------------------------------------------------|-------------------|
--------------------------------------------------|-------------------|
--------------------------------------------------|--7----------------|
--9--------------9--------9--------------9--------|--7----------------|
--7--7--7--7--7--7--------7--7--7--7--7--7--------|--5----------------|
--------------------------------------------------|-------------------|


                         PM PM PM PM             PM PM PM PM           
  W                   E  S  S  S  S  H        E  S  S  S  S  H         
-------------------|--------------------------------------------------|
-------------------|--------------------------------------------------|
-------------------|--------------------------------------------------|
-------------------|--------------------------------------------------|
-------------------|--5--------------5--------5--------------5--------|
--2----------------|--3--3--3--3--3--3--------3--3--3--3--3--3--------|


     PM PM PM PM    PM PM              PM PM PM PM    PM PM         
  E  S  S  S  S  E  S  S  Q.        E  S  S  S  S  E  S  S  Q.      
---------------------------------|---------------------------------|
---------------------------------|---------------------------------|
---------------------------------|---------------------------------|
---------------------------------|--7--------------7--------7------|
--7--------------7--------7------|--5--5--5--5--5--5--5--5--5------|
--5--5--5--5--5--5--5--5--5------|---------------------------------|


     PM PM PM PM    PM PM              PM PM PM PM    PM PM         
  E  S  S  S  S  E  S  S  Q.        E  S  S  S  S  E  S  S  Q.      
---------------------------------|---------------------------------|
---------------------------------|---------------------------------|
---------------------------------|---------------------------------|
---------------------------------|---------------------------------|
--5--------------5--------5------|--2--------------2--------2------|
--3--3--3--3--3--3--3--3--3------|--0--0--0--0--0--0--0--0--0------|


     PM PM PM PM    PM PM              PM PM PM PM    PM PM         
  E  S  S  S  S  E  S  S  Q.        E  S  S  S  S  E  S  S  Q.      
---------------------------------|---------------------------------|
---------------------------------|---------------------------------|
---------------------------------|---------------------------------|
---------------------------------|---------------------------------|
--7--------------7--------7------|--7--------------7--------7------|
--5--5--5--5--5--5--5--5--5------|--5--5--5--5--5--5--5--5--5------|


                      PM PM PM PM             
  W                   E  E  E  E  E  E  Q     
-------------------|-------------------------|
-------------------|-------------------------|
--7----------------|--------------7----------|
--7----------------|--------------7----------|
--5----------------|--5--5--5--5--5----------|
-------------------|-------------------------|


     PM PM PM PM             PM PM PM PM           
  E  S  S  S  S  H        E  S  S  S  S  H         
--------------------------------------------------|
--------------------------------------------------|
--------------------------------------------------|
--9--------------9--------9--------------9--------|
--7--7--7--7--7--7--------7--7--7--7--7--7--------|
--------------------------------------------------|


     PM PM PM PM PM PM PM PM PM PM PM PM PM PM PM PM PM PM PM PM PM PM PM PM PM 
  E  S  S  S  S  S  S  S  S  S  S  S  S  S  S  S  S  S  S  S  S  S  S  S  S  S  
--------------------------------------------------------------------------------
--------------------------------------------------------------------------------
--------------------------------------------------------------------------------
--5-----------------------------------------------------------------------------
--3--3--3--3--3--3--3--3--3--3--3--3--3--3--3--3--3--3--3--3--3--3--3--3--3--3--
--------------------------------------------------------------------------------


                                                    PM PM PM PM              
  W                H.              W                E  E  E  E  E  E  E  E   
--------------------------------|-------------------------------------------|
--------------------------------|-------------------------------------------|
--------------------------------|--7----------------------2--4--4--2--0-----|
--5----------------L------------|--7----------------2--4-----------------4--|
--5----------------L------------|--5----------------------------------------|
--3----------------L------------|-------------------------------------------|


     PM PM PM PM             PM PM PM PM           
  E  S  S  S  S  H        E  S  S  S  S  H         
--------------------------------------------------|
--------------------------------------------------|
--------------------------------------------------|
--9--------------9--------9--------------9--------|
--7--7--7--7--7--7--------7--7--7--7--7--7--------|
--------------------------------------------------|


     PM PM PM PM PM PM PM PM PM PM PM PM PM PM PM PM PM PM PM PM PM PM PM PM PM 
  E  S  S  S  S  S  S  S  S  S  S  S  S  S  S  S  S  S  S  S  S  S  S  S  S  S  
--------------------------------------------------------------------------------
--------------------------------------------------------------------------------
--------------------------------------------------------------------------------
--------------------------------------------------------------------------------
--7--7--7--7--7--7--7--7--7--7--7--7--7--7--7--7--7--7--7--7--7--7--7--7--7--7--
--8-----------------------------------------------------------------------------


                                                    PM PM PM PM              
  W                H.              W                E  E  E  E  E  E  E  E   
--------------------------------|-------------------------------------------|
--------------------------------|-------------------------------------------|
--------------------------------|--7----------------------2--4--4--2--0-----|
--5----------------L------------|--7----------------2--4-----------------4--|
--5----------------L------------|--5----------------------------------------|
--3----------------L------------|-------------------------------------------|


  W                   W                 
-------------------|-------------------|
-------------------|-------------------|
--4----------------|--L----------------|
--4----------------|--L----------------|
--2----------------|--L----------------|
-------------------|-------------------|


     PM PM PM PM             PM PM PM PM                               
  E  S  S  S  S  H        E  S  S  S  S  H           W                 
--------------------------------------------------|-------------------|
--------------------------------------------------|-------------------|
--------------------------------------------------|--7----------------|
--9--------------9--------9--------------9--------|--7----------------|
--7--7--7--7--7--7--------7--7--7--7--7--7--------|--5----------------|
--------------------------------------------------|-------------------|


                         PM PM PM PM             PM PM PM PM           
  W                   E  S  S  S  S  H        E  S  S  S  S  H         
-------------------|--------------------------------------------------|
-------------------|--------------------------------------------------|
--L----------------|--------------------------------------------------|
--L----------------|--------------------------------------------------|
--L----------------|--5--------------5--------5--------------5--------|
-------------------|--3--3--3--3--3--3--------3--3--3--3--3--3--------|


     PM PM PM PM    PM PM              PM PM PM PM    PM PM         
  E  S  S  S  S  E  S  S  Q.        E  S  S  S  S  E  S  S  Q.      
---------------------------------|---------------------------------|
---------------------------------|---------------------------------|
---------------------------------|---------------------------------|
---------------------------------|--7--------------7--------7------|
--7--------------7--------7------|--5--5--5--5--5--5--5--5--5------|
--5--5--5--5--5--5--5--5--5------|---------------------------------|


     PM PM PM PM    PM PM              PM PM PM PM    PM PM         
  E  S  S  S  S  E  S  S  Q.        E  S  S  S  S  E  S  S  Q.      
---------------------------------|---------------------------------|
---------------------------------|---------------------------------|
---------------------------------|---------------------------------|
---------------------------------|---------------------------------|
--5--------------5--------5------|--2--------------2--------2------|
--3--3--3--3--3--3--3--3--3------|--0--0--0--0--0--0--0--0--0------|


     PM PM PM PM    PM PM              PM PM PM PM    PM PM         
  E  S  S  S  S  E  S  S  Q.        E  S  S  S  S  E  S  S  Q.      
---------------------------------|---------------------------------|
---------------------------------|---------------------------------|
---------------------------------|---------------------------------|
---------------------------------|---------------------------------|
--7--------------7--------7------|--7--------------7--------7------|
--5--5--5--5--5--5--5--5--5------|--5--5--5--5--5--5--5--5--5------|


                      PM PM PM PM                               
  W                   E  E  E  E  H           W                 
-------------------|-----------------------|-------------------|
-------------------|-----------------------|-------------------|
--7----------------|--------------7--------|-------------------|
--7----------------|--------------7--------|-------------------|
--5----------------|--5--5--5--5--5--------|--5----------------|
-------------------|-----------------------|--3----------------|


  W                   W                   W                   W                 
-------------------|-------------------|-------------------|-------------------|
-------------------|-------------------|-------------------|-------------------|
-------------------|-------------------|-------------------|-------------------|
-------------------|-------------------|--4----------------|--5----------------|
--5----------------|--2----------------|--2----------------|--3----------------|
--2----------------|--0----------------|-------------------|-------------------|


  W                   Q    Q    Q    Q       Q    Q    Q    Q      
-------------------|----------------------|-----------------------|
-------------------|----------------------|-----------------------|
-------------------|----------------------|-------2----4----5~----|
-------------------|------------2----4----|--5--------------------|
--5----------------|--3----5--------------|-----------------------|
--3----------------|----------------------|-----------------------|


  W                   W                   W                   W                 
-------------------|-------------------|-------------------|-------------------|
-------------------|-------------------|-------------------|-------------------|
-------------------|-------------------|-------------------|-------------------|
-------------------|-------------------|--9----------------|--4----------------|
--5----------------|--5----------------|--7----------------|--2----------------|
--3----------------|--2----------------|-------------------|-------------------|


  H        H           W                   W                 
--------------------|-------------------|-------------------|
--------------------|-------------------|-------------------|
--------------------|-------------------|-------------------|
--5--------L--------|--7----------------|-------------------|
--3--------2--------|--5----------------|--5----------------|
--------------------|-------------------|--3----------------|


  W                   W                   H        W                 
-------------------|-------------------|----------------------------|
-------------------|-------------------|----------------------------|
-------------------|-------------------|----------------------------|
-------------------|-------------------|-----------4----------------|
--L----------------|--2----------------|--L--------2----------------|
--L----------------|--0----------------|--L-------------------------|


  W                   Q    H.              W.               H        E   
-------------------|--------------------|-------------------------------|
-------------------|--------------------|-------------------------------|
-------------------|--------------------|-------------------------------|
--4----------------|--L-----------------|-------------------------------|
--2----------------|--L----2------------|--7----------------L--------L--|
-------------------|-------0------------|--5----------------L--------L--|


  PM PM PM PM PM PM PM PM PM PM PM PM                         
  E  E  E  E  E  E  E  E  E  E  E  E     Q    Q    Q    Q     
--------------------------------------|----------------------|
--------------------------------------|----------------------|
--------------------------------------|----------------------|
--------------------------------------|----------------------|
--5--5--5--5--5--5--5--5--5--5--5--5--|--9----7----5----4----|
--2--2--2--2--2--2--2--2--2--2--2--2--|--7----5----3----2----|


  PM  PM PM PM  PM PM PM  PM PM PM  PM  PM PM PM  PM PM PM  PM PM PM  
  E.  S  S  E.  S  S  E.  S  S  E.  E.  S  S  E.  S  S  E.  S  S  S   
---------------------------------------------------------------------|
---------------------------------------------------------------------|
---------------------------------------------------------------------|
---------------------------------------------------------------------|
---------------------------------------------------------------------|
--0---0--0--0---0--0--0---0--0--0---0---0--0--0---0--0--0---0--0--0--|


  PM  PM PM PM  PM PM PM  PM PM PM  PM  PM PM PM  
  E.  S  S  E.  S  S  E.  S  S  E.  E.  S  S  S   
-------------------------------------------------|
-------------------------------------------------|
-------------------------------------------------|
-------------------------------------------------|
--2---2--2--2---2--2--2---2--2--2---2---2--2--2--|
-------------------------------------------------|


  PM  PM PM PM  PM PM PM  PM PM PM  
  E.  S  S  E.  S  S  E.  S  S  S   
-----------------------------------|
-----------------------------------|
-----------------------------------|
-----------------------------------|
--2---2--2--2---2--2--2---2--2--2--|
-----------------------------------|


  PM  PM PM PM  PM PM PM  PM PM PM  PM  PM PM PM  
  E.  S  S  E.  S  S  E.  S  S  E.  E.  S  S  S   
-------------------------------------------------|
-------------------------------------------------|
-------------------------------------------------|
-------------------------------------------------|
-------------------------------------------------|
--0---0--0--0---0--0--0---0--0--0---0---0--0--0--|


  PM  PM PM PM  PM PM PM  PM PM PM    PM PM PM PM PM PM PM PM PM PM PM PM  
  E.  S  S  E.  S  S  E.  S  S  S     E  E  E  E  E  E  E  E  E  E  E  E   
-----------------------------------|--------------------------------------|
-----------------------------------|--------------------------------------|
-----------------------------------|--------------------------------------|
-----------------------------------|--------------------------------------|
-----------------------------------|--5--5--5--5--5--5--5--5--5--5--5--5--|
--0---0--0--0---0--0--0---0--0--0--|--2--2--2--2--2--2--2--2--2--2--2--2--|


  Q    Q    Q    Q       E  S S Q    S S S S S E.   
----------------------|----------------------------|
----------------------|--8--8-L-8----8-L-7-7-5-L---|
----------------------|----------------------------|
----------------------|----------------------------|
--9----7----5----4----|----------------------------|
--7----5----3----2----|----------------------------|


  S S S S S E.  S S S S S  E.  H            E   S S  Q     S  S S S S E.   
----------------------------------------|---------------------------------|
--8-L-7-7-5-L---7-L-5-5-4~-L---L--------|--10--10-L-10----10--L-8-8-7-L---|
----------------------------------------|---------------------------------|
----------------------------------------|---------------------------------|
----------------------------------------|---------------------------------|
----------------------------------------|---------------------------------|


   S  S S S S E.  E  E  H            E   S  S  Q     S  S  S  S  S E.   
---------------------------------|-------------------------------------|
--10--L-8-8-7-L---5--7--8--------|--12--12--L-12----13--L-12-12-10-L---|
---------------------------------|-------------------------------------|
---------------------------------|-------------------------------------|
---------------------------------|-------------------------------------|
---------------------------------|-------------------------------------|


   S  S  S  S  S E.   S  S  S  S S E.      S  S  S  S S E.   E   E   E   E   
---------------------------------------|------------------------------------|
--13--L-12-12-10-L---12--L-10-10-8-L---|--12--L-10-10-8-L---12--13--12--10--|
---------------------------------------|------------------------------------|
---------------------------------------|------------------------------------|
---------------------------------------|------------------------------------|
---------------------------------------|------------------------------------|


   E   E  E   E  E  E  S  S  S  S H            E  S S Q    S S S S S E.   
--------------------------------------------|----------------------------|
--12--10--8---------------------------------|--8--8-L-8----8-L-7-7-5-L---|
-------------11--9-----8h-9p-8h-9-9~--------|----------------------------|
--------------------------------------------|----------------------------|
--------------------------------------------|----------------------------|
--------------------------------------------|----------------------------|


  S S S S S E.  S S S S S  E.  H            E   S S  Q     S  S S S S E.   
----------------------------------------|---------------------------------|
--8-8-7-7-5-L---8-L-7-7-4~-L---L--------|--10--10-L-10----10--L-8-8-7-L---|
----------------------------------------|---------------------------------|
----------------------------------------|---------------------------------|
----------------------------------------|---------------------------------|
----------------------------------------|---------------------------------|


   S  S S S S E.  E  E  H            E   S  S  Q     S  S  S  S  S E.   
---------------------------------|-------------------------------------|
--10--L-8-8-7-L---5--7--8--------|--12--12--L-12----13--L-12-12-10-L---|
---------------------------------|-------------------------------------|
---------------------------------|-------------------------------------|
---------------------------------|-------------------------------------|
---------------------------------|-------------------------------------|


   S  S  S  S  S E.   S  S  S  S S E.      S  S  S  S S E.   E   E   E   E   
---------------------------------------|------------------------------------|
--13--L-12-12-10-L---12--L-10-10-8-L---|--12--L-10-10-8-L---12--13--12--10--|
---------------------------------------|------------------------------------|
---------------------------------------|------------------------------------|
---------------------------------------|------------------------------------|
---------------------------------------|------------------------------------|


   E   E  E   E  E  E  Q    H         
-------------------------------------|
--12--10--8--------------------------|
-------------11--9-----8----9--------|
-------------------------------------|
-------------------------------------|
-------------------------------------|


  Something like that...                                                        
  3                      3  3   3  3  3  3  3  3   3  3  3                      
  S.                     S. S.  S. S. S. S. S. S.  S. S. S.  S  S S  S S S S S S
--------------------------------------------------------------------------------
--7h---------------------8p-7--10p-8p-7--7h-8p-7--10p-8p-7--12-10-8-10-8-7-8-7-5
--------------------------------------------------------------------------------
--------------------------------------------------------------------------------
--------------------------------------------------------------------------------
--------------------------------------------------------------------------------


  S S S S S S S S S S S S S S S S  S S S S S S S S    S S S S S S S S  
---------------------------------------------------|------------------|
--4-0-0-0-5-0-0-0-7-0-0-0-8-0-0-0-10-0-0-0-8-0-0-0-|--7-0-0-0-4-0-0-0-|
---------------------------------------------------|------------------|
---------------------------------------------------|------------------|
---------------------------------------------------|------------------|
---------------------------------------------------|------------------|


  3  3  3   3  3  3  3  3  3   3  3  3                              
  S. S. S.  S. S. S. S. S. S.  S. S. S.  S  S S  S S S S S S S S S  
-------------------------------------------------------------------|
--7h-8p-7--10p-8p-7--7h-8p-7--10p-8p-7--12-10-8-10-8-7-8-7-5-7-5-4-|
-------------------------------------------------------------------|
-------------------------------------------------------------------|
-------------------------------------------------------------------|
-------------------------------------------------------------------|


  S S S S S S S S S S S S S S S S  S S S S S S S S    S S S S S S S S  
---------------------------------------------------|------------------|
--4-0-0-0-5-0-0-0-7-0-0-0-8-0-0-0-10-0-0-0-8-0-0-0-|--7-0-0-0-4-0-0-0-|
---------------------------------------------------|------------------|
---------------------------------------------------|------------------|
---------------------------------------------------|------------------|
---------------------------------------------------|------------------|


   H.             E    E      H.             E   E   
--14b------------14p--12--|--14~------------12--14--|
--------------------------|-------------------------|
--------------------------|-------------------------|
--------------------------|-------------------------|
--------------------------|-------------------------|
--------------------------|-------------------------|


   S  S  S  S  S  S  S  S  S  S  S  S  S  S  S  S  
--15-14-12-14-12-11-12-11----11-------------------|
--------------------------13----13-12-13-12-------|
--------------------------------------------14-12-|
--------------------------------------------------|
--------------------------------------------------|
--------------------------------------------------|


   S  S  S  S  S  S  S  S  S  S  S  S  S  S  S  S  
--------------------------------------------------|
--------------------------------------------------|
--14-12-11-12-------------------------------------|
--------------14-16-13----13----------------------|
-----------------------15----15-14-12-------------|
--------------------------------------15-14-12-14-|


   S  S  S  S  S  S  S  S  S  S  S  S  S  S  S  S  
--------------------------------------------------|
--------------------------------------------------|
--------------------------------------------------|
--------------------------------------------------|
-----------------------------12----12-14-12-14-15-|
--12-11-12-11-12-14-15-14-15----15----------------|


   S  S  S  S  S  S  S  S  S  S  S  S  S  S  S  S     S  S  S  S  S  S  S S  
--------------------------------------------------|--------------11-20b-L-L-|
-----------------------------------------------12-|-----12-13-12------------|
--------------------11----11-12-11-12-14-12-14----|--14---------------------|
--13----13-14-13-14----14-------------------------|-------------------------|
-----15-------------------------------------------|-------------------------|
--------------------------------------------------|-------------------------|


                                            PM PM PM PM           PM PM  
   H          H            H.               S  S  S  S  Q    Q    E  E   
--22b--------22--------|---L~------------|------------------------------|
-----------------------|-----------------|------------------------------|
-----------------------|-----------------|------------------------------|
-----------------------|-----------------|------------------------------|
-----------------------|-----------------|------------------------------|
-----------------------|-----------------|--0--0--0--0------------0--0--|


  PM PM PM PM      PM PM      PM PM                                          
  S  S  S  S  Q    S  S  Q    S  S     W                   W                 
------------------------------------|-------------------|-------------------|
------------------------------------|-------------------|-------------------|
------------------------------------|-------------------|-------------------|
------------------------------------|-------------------|-------------------|
------------------------------------|--2----------------|--L----------------|
--0--0--0--0-------0--0-------0--0--|--0----------------|--L----------------|


  PM PM PM PM           PM PM    PM PM PM PM      PM PM      PM PM  
  S  S  S  S  Q    Q    E  E     S  S  S  S  Q    S  S  Q    S  S   
------------------------------|------------------------------------|
------------------------------|------------------------------------|
------------------------------|------------------------------------|
--4--4--4--4------------4--4--|--4--4--4--4-------4--4-------4--4--|
--5--5--5--5------------5--5--|--5--5--5--5-------5--5-------5--5--|
------------------------------|------------------------------------|


  W                   W                 
-------------------|-------------------|
-------------------|-------------------|
-------------------|-------------------|
-------------------|-------------------|
--5----------------|--L----------------|
--3----------------|--L----------------|


     PM PM PM PM    PM PM PM PM    PM PM  
  E  S  S  S  S  E  S  S  S  S  E  S  S   
-----------------------------------------|
-----------------------------------------|
-----------------------------------------|
--5--------------5--------------5--------|
--3--3--3--3--3--3--3--3--3--3--3--3--3--|
-----------------------------------------|


     PM PM PM PM    PM PM PM PM    PM PM        PM  
  E  S  S  S  S  E  S  S  S  S  E  S  S     S S E   
-----------------------------------------|---------|
-----------------------------------------|---------|
-----------------------------------------|---------|
--7--------------7--------------7--------|--4------|
--5--5--5--5--5--5--5--5--5--5--5--5--5--|--6-6-6--|
-----------------------------------------|---------|


     PM PM PM PM    PM PM PM PM    PM PM                         
  E  S  S  S  S  E  S  S  S  S  E  S  S     H         H          
-----------------------------------------|----------------------|
-----------------------------------------|----------------------|
-----------------------------------------|----------------------|
--4--------------4--------------4--------|--5~--------4~--------|
--6--6--6--6--6--6--6--6--6--6--6--6--6--|----------------------|
-----------------------------------------|----------------------|


  H         H            H         H         H          
----------------------|--------------------------------|
----------------------|--------------------------------|
----------------------|--------------------------------|
--2~------------------|----------------------7~--------|
------------6~--------|--3~--------2~------------------|
----------------------|--------------------------------|


  H        W                     E   E   E   E   E   E   S   S   E   
-----------------------------|--19------19------20--19--20p-19p-17--|
-----------------------------|------20------20----------------------|
-----------------------------|--------------------------------------|
--L--------------------------|--------------------------------------|
-----------6~----------------|--------------------------------------|
-----------------------------|--------------------------------------|


   E   E   E   E   E   E   S   S   E   
--17------17------19--17--19p-17p-15--|
------19------19----------------------|
--------------------------------------|
--------------------------------------|
--------------------------------------|
--------------------------------------|


   E   E   E   E   E   E   S   S   E  E   Q     Q.      
--15------15------17--15--17p-15p-14--L--------14------|
------17------17-------------------------16------------|
-------------------------------------------------------|
-------------------------------------------------------|
-------------------------------------------------------|
-------------------------------------------------------|


   E   E   E   E   E   E   S   S   E      E   E   E   E   E   E   S   S   E   
--19------19------20--19--20p-19p-17--|--17------17------19--17--19p-17p-15--|
------20------20----------------------|------19------19----------------------|
--------------------------------------|--------------------------------------|
--------------------------------------|--------------------------------------|
--------------------------------------|--------------------------------------|
--------------------------------------|--------------------------------------|


   E   E   E   E   E   E   S   S   E  E   Q     Q.      
--15------15------17--15--17p-15p-14--L--------14------|
------17------17-------------------------16------------|
-------------------------------------------------------|
-------------------------------------------------------|
-------------------------------------------------------|
-------------------------------------------------------|


   E   E   E   E   E   E   S   S   E      E   E   E   E   E   E   S   S   E   
--19------19------20--19--20p-19p-17--|--17------17------19--17--19p-17p-15--|
------20------20----------------------|------19------19----------------------|
--------------------------------------|--------------------------------------|
--------------------------------------|--------------------------------------|
--------------------------------------|--------------------------------------|
--------------------------------------|--------------------------------------|


   E   E   E   E   E   E   S   S   E  E   Q     Q.      
--15------15------17--15--17p-15p-14--L--------14------|
------17------17-------------------------16------------|
-------------------------------------------------------|
-------------------------------------------------------|
-------------------------------------------------------|
-------------------------------------------------------|


   E   E   E   E   E   E   S   S   E      E   E   E   E   E   E   S   S   E   
--19------19------20--19--20p-19p-17--|--17------17------19--17--19p-17p-15--|
------20------20----------------------|------19------19----------------------|
--------------------------------------|--------------------------------------|
--------------------------------------|--------------------------------------|
--------------------------------------|--------------------------------------|
--------------------------------------|--------------------------------------|


   E   E   E   E   E   E   S   S   E  E   Q     Q.      
--15------15------17--15--17p-15p-14--L--------14------|
------17------17-------------------------16------------|
-------------------------------------------------------|
-------------------------------------------------------|
-------------------------------------------------------|
-------------------------------------------------------|


   Q     Q     Q     Q     Q     Q     Q     Q        Q     Q     Q     Q     
--------------------14----------------------14----|--------------------14----|
--16----------16----------16----------16----------|--16----------16----------|
--------16----------------------16----------------|--------16----------------|
--------------------------------------------------|--------------------------|
--------------------------------------------------|--------------------------|
--------------------------------------------------|--------------------------|


   W                   W                   W                 
--------------------|-------------------|-------------------|
--12----------------|-------------------|-------------------|
--------------------|--4----------------|--L----------------|
--------------------|--4----------------|--L----------------|
--------------------|--2----------------|--L----------------|
--------------------|-------------------|-------------------|


     PM PM PM PM             PM PM PM PM                               
  E  S  S  S  S  H        E  S  S  S  S  H           W                 
--------------------------------------------------|-------------------|
--------------------------------------------------|-------------------|
--------------------------------------------------|--7----------------|
--9--------------9--------9--------------9--------|--7----------------|
--7--7--7--7--7--7--------7--7--7--7--7--7--------|--5----------------|
--------------------------------------------------|-------------------|


                         PM PM PM PM             PM PM PM PM           
  W                   E  S  S  S  S  H        E  S  S  S  S  H         
-------------------|--------------------------------------------------|
-------------------|--------------------------------------------------|
-------------------|--------------------------------------------------|
-------------------|--------------------------------------------------|
-------------------|--5--------------5--------5--------------5--------|
--2----------------|--3--3--3--3--3--3--------3--3--3--3--3--3--------|


     PM PM PM PM    PM PM              PM PM PM PM    PM PM         
  E  S  S  S  S  E  S  S  Q.        E  S  S  S  S  E  S  S  Q.      
---------------------------------|---------------------------------|
---------------------------------|---------------------------------|
---------------------------------|---------------------------------|
---------------------------------|--7--------------7--------7------|
--7--------------7--------7------|--5--5--5--5--5--5--5--5--5------|
--5--5--5--5--5--5--5--5--5------|---------------------------------|


     PM PM PM PM    PM PM              PM PM PM PM    PM PM         
  E  S  S  S  S  E  S  S  Q.        E  S  S  S  S  E  S  S  Q.      
---------------------------------|---------------------------------|
---------------------------------|---------------------------------|
---------------------------------|---------------------------------|
---------------------------------|---------------------------------|
--5--------------5--------5------|--2--------------2--------2------|
--3--3--3--3--3--3--3--3--3------|--0--0--0--0--0--0--0--0--0------|


     PM PM PM PM    PM PM              PM PM PM PM    PM PM         
  E  S  S  S  S  E  S  S  Q.        E  S  S  S  S  E  S  S  Q.      
---------------------------------|---------------------------------|
---------------------------------|---------------------------------|
---------------------------------|---------------------------------|
---------------------------------|---------------------------------|
--7--------------7--------7------|--7--------------7--------7------|
--5--5--5--5--5--5--5--5--5------|--5--5--5--5--5--5--5--5--5------|


                      PM PM PM PM                               
  W                   E  E  E  E  H           W                 
-------------------|-----------------------|-------------------|
-------------------|-----------------------|-------------------|
--7----------------|--------------7--------|-------------------|
--7----------------|--------------7--------|-------------------|
--5----------------|--5--5--5--5--5--------|--5----------------|
-------------------|-----------------------|--3----------------|


  W                   W                   W                   W                 
-------------------|-------------------|-------------------|-------------------|
-------------------|-------------------|-------------------|-------------------|
-------------------|-------------------|-------------------|-------------------|
-------------------|-------------------|--4----------------|--5----------------|
--5----------------|--2----------------|--2----------------|--3----------------|
--2----------------|--0----------------|-------------------|-------------------|


  W                   Q    Q    Q    Q       Q    Q    Q    Q      
-------------------|----------------------|-----------------------|
-------------------|----------------------|-----------------------|
-------------------|----------------------|-------2----4----5~----|
-------------------|------------2----4----|--5--------------------|
--5----------------|--3----5--------------|-----------------------|
--3----------------|----------------------|-----------------------|


   W                    W                   W                 
--------------------|--------------------|-------------------|
--------------------|--------------------|-------------------|
--------------------|--------------------|-------------------|
--12----------------|--12----------------|--9----------------|
--10----------------|---9----------------|--7----------------|
--------------------|--------------------|-------------------|


  W                   H        H           W                 
-------------------|--------------------|-------------------|
-------------------|--------------------|-------------------|
-------------------|--------------------|-------------------|
--4----------------|--5--------L--------|--7----------------|
--2----------------|--3--------2--------|--5----------------|
-------------------|--------------------|-------------------|


  W                   W                   W                   W                 
-------------------|-------------------|-------------------|-------------------|
-------------------|-------------------|-------------------|-------------------|
-------------------|-------------------|-------------------|-------------------|
-------------------|-------------------|-------------------|-------------------|
--5----------------|--L----------------|--5----------------|--5----------------|
--3----------------|--L----------------|--3----------------|--2----------------|


  W                   W                   W                   W                 
-------------------|-------------------|-------------------|-------------------|
-------------------|-------------------|-------------------|-------------------|
-------------------|-------------------|-------------------|-------------------|
-------------------|--4----------------|--5----------------|-------------------|
--2----------------|--2----------------|--3----------------|--5----------------|
--0----------------|-------------------|-------------------|--3----------------|


  Q    Q    Q    Q       Q    Q    Q    Q        W                 
----------------------|-----------------------|-------------------|
----------------------|-----------------------|-------------------|
----------------------|-------2----4----5~----|-------------------|
------------2----4----|--5--------------------|-------------------|
--3----5--------------|-----------------------|--5----------------|
----------------------|-----------------------|--3----------------|


  W                   W                   W                 
-------------------|-------------------|-------------------|
-------------------|-------------------|-------------------|
-------------------|-------------------|-------------------|
-------------------|-------------------|--4----------------|
--5----------------|--2----------------|--2----------------|
--2----------------|--0----------------|-------------------|


  H        H           W                   W                 
--------------------|-------------------|-------------------|
--------------------|-------------------|-------------------|
--------------------|-------------------|-------------------|
--5--------L--------|--7----------------|--5----------------|
--3--------2--------|--5----------------|--3----------------|
--------------------|-------------------|-------------------|


  W                   W                   W                   W                 
-------------------|-------------------|-------------------|-------------------|
-------------------|-------------------|-------------------|-------------------|
-------------------|-------------------|-------------------|-------------------|
--L----------------|--L----------------|-------------------|-------------------|
--L----------------|--L----------------|--5----------------|--L----------------|
-------------------|-------------------|--3----------------|--L----------------|


  W                   W                   W                 
-------------------|-------------------|-------------------|
-------------------|-------------------|-------------------|
-------------------|-------------------|-------------------|
-------------------|-------------------|-------------------|
--L----------------|--L----------------|--L----------------|
--L----------------|--L----------------|--L----------------|


  H        H                      
--------------------|-----------||
--------------------|-----------||
--------------------|-----------||
--------------------|-----------||
--5-----------------|-----------||
--3-----------------|-----------||
Добавлено: 05.08.2013
Другие материалы по этой песне:

Страница создана 05.08.2013
http://primanota.ru/insania/the-land-of-the-wintersun-chords.htm
Привет, Гость.
Предлагаем пройти революционный курс по гитаре.
Подарок от PrimaNota.Ru, забирай!