PrimaNota.ru - самый крупный в мире бесплатный архив песенных текстов, аккордов, табулатур и нот


Insania - Beware Of The Dragons - текст песни, таба, видео

Регистрация Запомнить меня
Войти через:  Facebook Google Twitter Vk Yandex Mail.ru

Insania - Beware Of The Dragons - текст песни, таба, видео

Печатать
Просмотров: 116
Уроки эстрадного вокала в Санкт-Петербурге
As recorded by Insania
(From the 2001 Album SUNRISE IN THE RIVERLAND)

Transcribed by Federico Picado
	



C5
x 3 5 x x x
	
D5
x 5 7 7 x x
	
E5
x 7 9 9 x x
	
Em
0 2 2 0 x 0

G5
3 5 5 x x x
	
A5
5 7 7 x x x
	
Bb5
6 8 8 x x x
	
B5
7 9 9 x x x

B/Eb
x 6 9 x x x
	
A/C#
x 4 7 x x x
	
Am/Eb
x 6 7 5 x x
	
Eb5
x 6 8 8 x x

F5
x 8 10 10 x x

Gtr I (E A D G B E) - 'Guitar 1'
Gtr II (E A D G B E) - 'Guitar 2'
Gtr III (E A D G B E) - 'Guitar 3'

   Intro
    Q=78
    N.C.
   4/4
    Gtr I
                             PM---------|
     Q   Q   Q   E  E    E.  T  T  S  S  S  S  E  E E  E
||--------------------|-----------------------------------||
||o-------------------|----------------------------------o||
||--------------------|-----------------------------------||
||---------------7--9-|-10--10-10-10--9--7----------------||
||o--7---9--10--------|--------------------10--9--7-6--9-o||
||--------------------|-----------------------------------||
|
|   Gtr II
|                            PM---------|
|    Q   Q   Q   E  E    E.  T  T  S  S  S  S  E  E E  E
||--------------------|-----------------------------------||
||o-------------------|----------------------------------o||
||--------------------|--9---9--9--9----------------------||
||-----------9--10-12-|--------------12-10--9-------------||
||o-10--12------------|-----------------------12-10-9-12-o||
||--------------------|-----------------------------------||


  C5
  PM----|     PM----|
  S S S S  Q  S S S S  E  E
|---------------------------|
|---------------------------|
|---------------------------|
|----------5-----------5--5-|
|-3-3-3-3--3--3-3-3-3--3--3-|
|---------------------------|
|
| PM----|     PM----|
| S S S S  Q  S S S S  E  E
|---------------------------|
|---------------------------|
|---------------------------|
|---------------------------|
|---------10----------10-10-|
|-8-8-8-8--8--8-8-8-8--8--8-|


  D5
  Gtr I
   PM------|       PM------|
   S  S  S  S  Q   S  S  S  S  E  E
|-----------------------------------|
|-----------------------------------|
|-----------------------------------|
|--------------7---------------7--7-|
|--5--5--5--5--5---5--5--5--5--5--5-|
|-----------------------------------|
|
| Gtr II
|  PM----------------------|
|  S  S  S  S  Q   S  S  S  S  E  E
|-----------------------------------|
|-----------------------------------|
|-----------------------------------|
|-----------------------------------|
|-------------12--------------12-12-|
|-10-10-10-10-10--10-10-10-10-10-10-|


                                    Q=156
  Am/Eb                               B5
   PM------|       PM------|          PM------------|
   S  S  S  S  Q   S  S  S  S  E  E   E E E E E E E E
|-----------------------------------|------------------|
|-----------------------------------|------------------|
|-----------------------------------|------------------|
|--------------7---------------7--7-|------------------|
|--6--6--6--6--6---6--6--6--6--6--6-|-9-9-9-9-9-9-9-9--|
|-----------------------------------|-7-7-7-7-7-7-7-7--|
|
|  PM------|       PM------|          PM------------|
|  S  S  S  S  Q   S  S  S  S  E  E   E E E E E E E E
|-----------------------------------|------------------|
|-----------------------------------|------------------|
|-----------------------------------|------------------|
|-----------------------------------|------------------|
|-------------12--------------12-12-|-9-9-9-9-9-9-9-9--|
|-11-11-11-11-11--11-11-11-11-11-11-|-7-7-7-7-7-7-7-7--|


  N.C.                        N.C.
                             8/4
  Gtr I
   PM------------------|
   e  e  e  e  e  e  e  e      H     H     H     Q   Q
|-------------------------||----------------------------|
|-------------------------||o---------------------------|
|-------------------------||----------------------------|
|-------------------------||---------------------7---9--|
|-14-15-12-14-10-12--9-10-||o--7-----9----10------------|
|-------------------------||----------------------------|
|
| Gtr II
|  PM------------------|
|  e  e  e  e  e  e  e  e      H     H     H     Q   Q
|-------------------------||----------------------------|
|-------------------------||o---------------------------|
|-------------------------||----------------------------|
|-12-14-10-12--9-10-------||---------------9----10--12--|
|-------------------12-14-||o-10----12------------------|
|-------------------------||----------------------------|


         PM---------|
   Q.    S  S  E  E  E  E  Q   Q  Q   Q
|-------------------------------------------||
|------------------------------------------o||
|-------------------------------------------||
|-10----10-10-10--9--7----------------------||
|----------------------10--9---7--6---9----o||
|-------------------------------------------||
|
|        PM---------|
|  Q.    S  S  E  E  E  E  Q   Q  Q   Q
|-------------------------------------------||
|------------------------------------------o||
|--9-----9--9--9----------------------------||
|----------------12-10--9-------------------||
|-------------------------12--10--9--12----o||
|-------------------------------------------||


  Q=78
  C5                                D5
 4/4
  Gtr I
  PM----|         PM----|            PM------|           PM------|
  S S S S  Q      S S S S  E E       S  S  S  S  Q       S  S  S  S  E E
|---------------------------------|-----------------------------------------|
|---------------------------------|-----------------------------------------|
|---------------------------------|-----------------------------------------|
|----------5---------------5-5----|--------------7-------------------7-7----|
|-3-3-3-3--3------3-3-3-3--3-3----|--5--5--5--5--5-------5--5--5--5--5-5----|
|---------------------------------|-----------------------------------------|
|
| Gtr II
| PM----|         PM----|            PM------|           PM------|
| S S S S  e S  S S S S S  e S  S    S  S  S  S  e S  S  S  S  S  S  e S  S
|---------------------------------|-----------------------------------------|
|---------------------------------|-----------------------------------------|
|---------------------------------|-----------------------------------------|
|---------------------------------|-----------------------------------------|
|---------10-9h10---------10-9h10-|-------------10-9h10-------------10-9h10-|
|-8-8-8-8---------8-8-8-8---------|-10-10-10-10---------10-10-10-10---------|


  Am/Eb
   PM------|           PM------|
   S  S  S  S  Q       S  S  S  S  E E
|------------------------------------------|
|------------------------------------------|
|------------------------------------------|
|--------------7-------------------7-7-----|
|--6--6--6--6--6-------6--6--6--6--6-6-----|
|------------------------------------------|
|
|  PM------|           PM------|
|  S  S  S  S  e S  S  S  S  S  S  e S  S
|------------------------------------------|
|------------------------------------------|
|------------------------------------------|
|------------------------------------------|
|-------------10-9h10-------------10-9h10--|
|-11-11-11-11---------11-11-11-11----------|


  Q=156
                                            $
  B5                N.C.
  Gtr I
  PM-----------------------------------------
  E E E E E E E E    e  e  e  e  e  e  e  e
|-----------------|-------------------------|
|-----------------|-------------------------|
|-----------------|-------------------------|
|-----------------|-------------------------|
|-9-9-9-9-9-9-9-9-|-14-15-12-14-10-12--9-10-|
|-7-7-7-7-7-7-7-7-|-------------------------|
|
| Gtr II
| PM-----------------------------------------
| E E E E E E E E    e  e  e  e  e  e  e  e
|-----------------|-------------------------|
|-----------------|-------------------------|
|-----------------|-------------------------|
|-----------------|-12-14-10-12--9-10-------|
|-9-9-9-9-9-9-9-9-|-------------------12-14-|
|-7-7-7-7-7-7-7-7-|-------------------------|


   Verse
    E5
 -----|    PM--|       PM----|    PM--|
    E E  E E E E  Q    S S S S  E E E E  Q
||-------------------|------------------------|
||o------------------|------------------------|
||-------------------|------------------------|
||-------9--------9--|----------9--------9----|
||o-7-7--7-7-7-7--7--|-7-7-7-7--7-7-7-7--7----|
||-------------------|------------------------|
|
|-----|    PM--|       PM----|    PM--|
|   E E  E E E E  Q    S S S S  E E E E  Q
||-------------------|------------------------|
||o------------------|------------------------|
||-------------------|------------------------|
||-------------------|------------------------|
||o-7-7-10-7-7-7-10--|-7-7-7-7-10-7-7-7-10----|
||-------------------|------------------------|


                            Q=7
  C5         D5    B5
  Gtr I
  W           H     E  Q.
|----------|-----------------||
|----------|----------------o||
|----------|-----------------||
|----------|-----------------||
|----------|----------------o||
|-8--------|-10-----7--7-----||
|
| Gtr II
| W           H     E  Q.
|----------|-----------------||
|----------|----------------o||
|----------|-----------------||
|----------|-----------------||
|-7--------|--9-------------o||
|----------|-------10-10-----||


 8
  B5         E5           D5            G5
  PM----|    PM----|      PM----|
  S S S S Q  S S S S Q    S S S S Q  T. S E. X S E
|-----------------------|----------------------------|
|-----------------------|----------------------------|
|-----------------------|----------------------------|
|--------------------9--|---------7------------------|
|---------9--7-7-7-7-7--|-5-5-5-5-5-----5-5\---5-5\--|
|-7-7-7-7-7-------------|---------------3-3\---3-3\--|
|
| PM----|    PM----|      PM----|
| S S S S Q  S S S S Q    S S S S Q  T. S E. X S E
|-----------------------|----------------------------|
|-----------------------|----------------------------|
|-----------------------|----------------------------|
|-----------------------|----------------------------|
|------------7-7-7-7-7--|-5-5-5-5-5------------------|
|-7-7-7-7-7-------------|---------------3-3\---3-3\--|


                                                      Q
  Em         A5           Bb5          B5
  Gtr I
  PM----|    PM----|      PM----|       PM----|
  S S S S Q  S S S S Q    S S S S Q     S S    S S Q
|-----------------------|-----------------------------|
|-----------------------|-----------------------------|
|-----------------------|-----------------------------|
|-----------------------|------------------------7S9--|
|--------------------7--|---------8-----7-9---10------|
|-0-0-0-0-0--5-5-5-5-5--|-6-6-6-6-6-------------------|
|
| Gtr II
| PM----|    PM----|      PM----|       PM----|
| S S S S Q  S S S S Q    S S S S Q     S S    S S Q
|-----------------------|-----------------------------|
|-----------------------|-----------------------------|
|-----------------------|------------------------7S8--|
|-----------------------|-----------------7----9------|
|-----------------------|--------------10-------------|
|-4-4-4-4-4--5-5-5-5-5--|-6-6-6-6-6-------------------|
|
| Gtr III
| W                       E   E   E E.    Q..
|-----------------------|-6-------6-6-----------------|
|-----------------------|-----7---7-7-----------------|
|-----------------------|---------6-6-----------------|
|-----------------------|-----------------------------|
|-----------------------|-----------------------------|
|-----------------------|-----------------------------|


 =156
  B5             E5
  PM----|        PM----|
  E E E E H      E E E E H
|--------------|--------------|
|--------------|--------------|
|--------------|--------------|
|--------------|---------9----|
|---------9----|-7-7-7-7-7----|
|-7-7-7-7-7----|--------------|
|
| E E E E H      E E E E H
|--------------|--------------|
|--------------|--------------|
|--------------|--------------|
|--------------|--------------|
|--------------|-7-7-7-7-7----|
|-7-7-7-7-7----|--------------|
|
| W              W
|--------------|--------------|
|--------------|--------------|
|--------------|--------------|
|--------------|--------------|
|--------------|--------------|
|--------------|--------------|


  D5             G5             Em
  Gtr I
  PM----|        PM----|        PM----|
  E E E E H      E E E E H      E E E E H
|--------------|--------------|--------------|
|--------------|--------------|--------------|
|--------------|--------------|--------------|
|---------7----|--------------|--------------|
|-5-5-5-5-5----|---------5----|--------------|
|--------------|-3-3-3-3-3----|-0-0-0-0-0----|
|
| Gtr II
| PM----|        PM----|        PM----|
| E E E E H      E E E E H      E E E E H
|--------------|--------------|--------------|
|--------------|--------------|--------------|
|--------------|--------------|--------------|
|--------------|--------------|--------------|
|-5-5-5-5-5----|--------------|--------------|
|--------------|-3-3-3-3-3----|-4-4-4-4-4----|
|
| Gtr III
| W              W              W
|--------------|--------------|--------------|
|--------------|--------------|--------------|
|--------------|--------------|--------------|
|--------------|--------------|--------------|
|--------------|--------------|--------------|
|--------------|--------------|--------------|


  A5             Bb5                B5
  PM----|        PM----|
  E E E E H      E E E E  H         W
|--------------|------------------|------|
|--------------|------------------|------|
|--------------|------------------|------|
|--------------|------------------|------|
|---------7----|----------8-------|-9----|
|-5-5-5-5-5----|-6-6-6-6--6-------|-7----|
|
| PM----|        PM----|
| E E E E H      E E E E  H         W
|--------------|------------------|------|
|--------------|------------------|------|
|--------------|------------------|------|
|--------------|------------------|------|
|--------------|------------------|-9----|
|-5-5-5-5-5----|-6-6-6-6--6-------|-7----|
|
| W              E E E E.   Q..     W
|--------------|-6---6-6----------|------|
|--------------|---7-7-7----------|------|
|--------------|-----6-6----------|------|
|--------------|------------------|------|
|--------------|------------------|------|
|--------------|------------------|------|


 Chorus
  E5
  Gtrs I, II
    PM----|   PM----|   PM|
  E S S S S E S S S S E S S
|---------------------------|
|---------------------------|
|---------------------------|
|-9---------9---------9-----|
|-7-7-7-7-7-7-7-7-7-7-7-7-7-|
|---------------------------|


  B/Eb                        D5
    PM----|   PM----|   PM|     PM----|   PM----|   PM|
  E S S S S E S S S S E S S   E S S S S E S S S S E S S
|---------------------------|---------------------------|
|---------------------------|---------------------------|
|---------------------------|---------------------------|
|-9---------9---------9-----|-7---------7---------7-----|
|-6-6-6-6-6-6-6-6-6-6-6-6-6-|-5-5-5-5-5-5-5-5-5-5-5-5-5-|
|---------------------------|---------------------------|


  A/C#
  Gtrs I, II
    PM----|   PM----|   PM|
  E S S S S E S S S S E S S
|---------------------------|
|---------------------------|
|---------------------------|
|-7---------7---------7-----|
|-4-4-4-4-4-4-4-4-4-4-4-4-4-|
|---------------------------|


  C5                          G5
    PM----|   PM----|   PM|     PM----|   PM----|   PM|
  E S S S S E S S S S E S S   E S S S S E S S S S E S S
|---------------------------|---------------------------|
|---------------------------|---------------------------|
|---------------------------|---------------------------|
|-5---------5---------5-----|---------------------------|
|-3-3-3-3-3-3-3-3-3-3-3-3-3-|-5---------5---------5-----|
|---------------------------|-3-3-3-3-3-3-3-3-3-3-3-3-3-|


         To Coda
  A5   Bb5    B5         B5             N.C.
                                       8/4
  Gtr I
  H    H      W          E H..           H     H     H     Q   Q
|-----------|----------|-------------||---------------------------|
|-----------|----------|-------------||---------------------------|
|-----------|----------|-------------||---------------------------|
|-----------|----------|-------------||--------------------7---9--|
|-7----8----|-9--------|-9-----------||--7-----9----10------------|
|-5----6----|-7--------|-7-----------||---------------------------|
|
| Gtr II
| H    H      W          E H..           H     H     H     Q   Q
|-----------|----------|-------------||---------------------------|
|-----------|----------|-------------||---------------------------|
|-----------|----------|-------------||---------------------------|
|-----------|----------|-------------||--------------9----10--12--|
|-7----8----|-9--------|-9-----------||-10----12------------------|
|-5----6----|-7--------|-7-----------||---------------------------|


         PM---------|
   Q.    S  S  E  E  E  E  Q   Q  Q   Q
|-----------------------------------------|
|-----------------------------------------|
|-----------------------------------------|
|-10----10-10-10--9--7--------------------|
|----------------------10--9---7--6---9---|
|-----------------------------------------|
|
|        PM---------|
|  Q.    S  S  E  E  E  E  Q   Q  Q   Q
|-----------------------------------------|
|-----------------------------------------|
|--9-----9--9--9--------------------------|
|----------------12-10--9-----------------|
|-------------------------12--10--9--12---|
|-----------------------------------------|


                                                        D.S. al Coda
  N.C.
  Gtr I
                                     PM---------|
   H     H     H     Q   Q     Q.    S  S  E  E  E  E  q   q  q   q
|---------------------------|-----------------------------------------|
|---------------------------|-----------------------------------------|
|---------------------------|-----------------------------------------|
|--------------------7---9--|-10----10-10-10--9--7--------------------|
|--7-----9----10------------|----------------------10--9---7--6---9---|
|---------------------------|-----------------------------------------|
|
| Gtr II
|                                    PM---------|
|  H     H     H     Q   Q     Q.    S  S  E  E  E  E  q   q  q   q
|---------------------------|-----------------------------------------|
|---------------------------|-----------------------------------------|
|---------------------------|--9-----9--9--9--------------------------|
|--------------9----10--12--|----------------12-10--9-----------------|
|-10----12------------------|-------------------------12--10--9--12---|
|---------------------------|-----------------------------------------|


  &
  E5                          B/Eb
 4/4
  Gtr I
    PM----|   PM----|   PM|     PM----|   PM----|   PM|
  E S S S S E S S S S E S S   E S S S S E S S S S E S S
|---------------------------|---------------------------|
|---------------------------|---------------------------|
|---------------------------|---------------------------|
|-9---------9---------9-----|-9---------9---------9-----|
|-7-7-7-7-7-7-7-7-7-7-7-7-7-|-6-6-6-6-6-6-6-6-6-6-6-6-6-|
|---------------------------|---------------------------|
|
| Gtr II
|   PM----|   PM----|   PM|     PM----|   PM----|   PM|
| E S S S S E S S S S E S S   E S S S S E S S S S E S S
|---------------------------|---------------------------|
|---------------------------|---------------------------|
|---------------------------|---------------------------|
|-5---------5---------5-----|-5---------5---------5-----|
|---7-7-7-7---7-7-7-7---7-7-|---6-6-6-6---6-6-6-6---6-6-|
|---------------------------|---------------------------|


  D5
    PM----|   PM----|   PM|
  E S S S S E S S S S E S S
|----------------------------|
|----------------------------|
|----------------------------|
|-7---------7---------7------|
|-5-5-5-5-5-5-5-5-5-5-5-5-5--|
|----------------------------|
|
|   PM----|   PM----|   PM|
| E S S S S E S S S S E S S
|----------------------------|
|----------------------------|
|----------------------------|
|-4---------4---------4------|
|---5-5-5-5---5-5-5-5---5-5--|
|----------------------------|


  A/C#                        C5
  Gtr I
    PM----|   PM|       PM|     PM----|   PM----|   PM|
  E S S S S E S S S S E S S   E S S S S E S S S S E S S
|---------------------------|---------------------------|
|---------------------------|---------------------------|
|---------------------------|---------------------------|
|-7---------7---------7-----|-5---------5---------5-----|
|-4-4-4-4-4-4-4-4-4-4-4-4-4-|-3-3-3-3-3-3-3-3-3-3-3-3-3-|
|---------------------------|---------------------------|
|
| Gtr II
|   PM----|   PM----|   PM|     PM----|   PM----|   PM|
| E S S S S E S S S S E S S   E S S S S E S S S S E S S
|---------------------------|---------------------------|
|---------------------------|---------------------------|
|---------------------------|---------------------------|
|---------------------------|---------------------------|
|-7---------7---------7-----|-7---------7---------7-----|
|---9-9-9-9---9-9-9-9---9-9-|---8-8-8-8---8-8-8-8---8-8-|


  G5                          A5   Bb5    B5         B5
    PM----|   PM----|   PM|
  E S S S S E S S S S E S S   H    H      W          E H..
|---------------------------|-----------|----------|----------|
|---------------------------|-----------|----------|----------|
|---------------------------|-----------|----------|----------|
|---------------------------|-----------|----------|----------|
|-5---------5---------5-----|-7----8----|-9--------|-9--------|
|-3-3-3-3-3-3-3-3-3-3-3-3-3-|-5----6----|-7--------|-7--------|
|
|   PM----|   PM----|   PM|
| E S S S S E S S S S E S S   H    H      W          E H..
|---------------------------|-----------|----------|----------|
|---------------------------|-----------|----------|----------|
|---------------------------|-----------|----------|----------|
|---------------------------|-----------|----------|----------|
|-5---------5---------5-----|-7----8----|-9--------|-9--------|
|---7-7-7-7---7-7-7-7---7-7-|-5----6----|-7--------|-7--------|


   Guitar Harmony
    E5
    Gtr I
     E  E  E  E  E  E  E  E    E  E  E  E  E  E  E  E
||--------------------------|-------------------------|
||o-------------------------|-------------------------|
||--16----14-16-14----16----|-16----14-16-14----16----|
||-----17----------17----17-|----17----------17----17-|
||o-------------------------|-------------------------|
||--------------------------|-------------------------|
|
|   Gtr II
|    E  E  E  E  E  E  E  E    E  E  E  E  E  E  E  E
||--------------------------|-------------------------|
||o-------------------------|-------------------------|
||--12--9-11-12-11--9-12--9-|-12--9-11-12-11--9-12--9-|
||--------------------------|-------------------------|
||o-------------------------|-------------------------|
||--------------------------|-------------------------|
|
|   Gtr III
|       PM|      PM|      PM      PM|      PM|      PM
|    E  E  E  E  E  E  E  E    E  E  E  E  E  E  E  E
||--------------------------|-------------------------|
||o-------------------------|-------------------------|
||--------------------------|-------------------------|
||---9--------9--------9----|--9--------9--------9----|
||o--7--7--7--7--7--7--7--7-|--7--7--7--7--7--7--7--7-|
||--------------------------|-------------------------|


  B5
   E  E  E  E  E  E  E  E    Q.      E  H
|-------------------------|----------------------|
|-------------------------|-16-------------------|
|-14-------14-------14----|---------14-14--------|
|----16-17----17-16----16-|----------------------|
|-------------------------|----------------------|
|-------------------------|----------------------|
|
|  E  E  E  E  E  E  E  E    Q.      E  H
|-------------------------|----------------------|
|-------------------------|-12-------------------|
|-11--8--9-11--9--8-11--8-|---------11-11--------|
|-------------------------|----------------------|
|-------------------------|----------------------|
|-------------------------|----------------------|
|
|     PM|      PM|      PM      PM|     PM|   PM
|  E  E  E  E  E  E  E  E    E  E E  E  E E E E
|-------------------------|----------------------|
|-------------------------|----------------------|
|-------------------------|----------------------|
|-------------------------|----------------------|
|--9--------9--------9----|--9-------9------9----|
|--7--7--7--7--7--7--7--7-|--7--7-7--7--7-7-7-7--|


  D5
  Gtr I
   E  E  E  E  E  E  E  E    E  E  E  E  E  E  E  E
|-------------------------|-------------------------|
|-------------------------|-------------------------|
|-14-------14-------14----|-14-------14-------14----|
|----16-17----17-16----16-|----16-17----17-16----16-|
|-------------------------|-------------------------|
|-------------------------|-------------------------|
|
| Gtr II
|  E  E  E  E  E  E  E  E    E  E  E  E  E  E  E  E
|-------------------------|-------------------------|
|-------------------------|-------------------------|
|-11-----9-11--9----11----|-11-----9-11--9----11----|
|----12----------12----12-|----12----------12----12-|
|-------------------------|-------------------------|
|-------------------------|-------------------------|
|
| Gtr III
|     PM|      PM|      PM      PM|      PM|      PM
|  E  E  E  E  E  E  E  E    E  E  E  E  E  E  E  E
|-------------------------|-------------------------|
|-------------------------|-------------------------|
|-------------------------|-------------------------|
|--7--------7--------7----|--7--------7--------7----|
|--5--5--5--5--5--5--5--5-|--5--5--5--5--5--5--5--5-|
|-------------------------|-------------------------|


  A5
   E  E  E  E  E  E  E  E    Q.      E  H
|-------------------------|---------------------|
|-------------------------|---------------------|
|-------------------------|-18------------------|
|-17-14-16-17-16-14-17-14-|---------17-17-------|
|-------------------------|---------------------|
|-------------------------|---------------------|
|
|  E  E  E  E  E  E  E  E    Q.      E  H
|-------------------------|---------------------|
|-------------------------|-10------------------|
|--9--------9--------9----|----------9--9-------|
|----11-12----12-11----11-|---------------------|
|-------------------------|---------------------|
|-------------------------|---------------------|
|
|     PM|      PM|      PM      PM|     PM|   PM
|  E  E  E  E  E  E  E  E    E  E E  E  E E E E
|-------------------------|---------------------|
|-------------------------|---------------------|
|-------------------------|---------------------|
|-------------------------|---------------------|
|--7--------7--------7----|--7-------7------7---|
|--5--5--5--5--5--5--5--5-|--5--5-5--5--5-5-5-5-|


  C5
  Gtr I
   E  E  E  E  E  E  E  E    E  E  E  E  E  E  E  E
|-------------------------|-------------------------|
|-------------------------|-------------------------|
|-------------------------|-------------------------|
|-17-14-16-17-16-14-17-14-|-17-14-16-17-16-14-17-14-|
|-------------------------|-------------------------|
|-------------------------|-------------------------|
|
| Gtr II
|  E  E  E  E  E  E  E  E    E  E  E  E  E  E  E  E
|-------------------------|-------------------------|
|-------------------------|-------------------------|
|--9--------9--------9----|--9--------9--------9----|
|----10-12----12-10----10-|----10-12----12-10----10-|
|-------------------------|-------------------------|
|-------------------------|-------------------------|
|
| Gtr III
|     PM|      PM|      PM      PM|      PM|      PM
|  E  E  E  E  E  E  E  E    E  E  E  E  E  E  E  E
|-------------------------|-------------------------|
|-------------------------|-------------------------|
|-------------------------|-------------------------|
|--5--------5--------5----|--5--------5--------5----|
|--3--3--3--3--3--3--3--3-|--3--3--3--3--3--3--3--3-|
|-------------------------|-------------------------|


  G5
   E  E  E  E  E  E  E  E    Q.      E   H
|-------------------------|-----------------------|
|-------------------------|-----------------------|
|-------------------------|-16------16--16--------|
|-16----14-16-14----16-14-|-----------------------|
|----17----------17-------|-----------------------|
|-------------------------|-----------------------|
|
|  E  E  E  E  E  E  E  E    Q.      E   H
|-------------------------|-----------------------|
|-------------------------|-----------------------|
|-------------------------|-12------12-[12]-------|
|-12--9-11-12-11--9-12-11-|-----------------------|
|-------------------------|-----------------------|
|-------------------------|-----------------------|
|
|     PM|      PM|      PM      PM   PM|      PM|
|  E  E  E  E  E  E  E  E    E  E E  E   E  E E E
|-------------------------|-----------------------|
|-------------------------|-----------------------|
|-------------------------|-----------------------|
|-------------------------|-----------------------|
|--5--------5--------5----|--5-------5--------5---|
|--3--3--3--3--3--3--3--3-|--3--3-3--3---3--3-3-3-|


  A5                               B5
  Gtr I
   H.       Q     Q..    S  H       S  S  H..          Q    H.
|--------------|-----------------|------------------|--------------||
|--------------|-----------------|------------------|-------------o||
|--------------|-----------------|------------------|--------------||
|--------------|-----------------|------------------|-16---16------||
|-15-------15--|-17-----17h19----|-18h19p18---------|-------------o||
|--------------|-----------------|------------------|--------------||
|
| Gtr II
|  H.       Q     Q..    S  H       S  S  H..          Q    H.
|--------------|-----------------|------------------|--------------||
|--------------|-----------------|------------------|-------------o||
|--------------|-----------------|------------------|--------------||
|--------------|-----------------|------------------|-13---13------||
|-12-------12--|-14-----14h15----|-14h15p14---------|-------------o||
|--------------|-----------------|------------------|--------------||
|
| Gtr III
|  W             +W                 W                 +W
|--------------|-----------------|------------------|--------------||
|--------------|-----------------|------------------|-------------o||
|--------------|-----------------|------------------|--------------||
|--------------|-----------------|------------------|--------------||
|--7-----------|-(7)-------------|--9---------------|-(9)---------o||
|--5-----------|-(5)-------------|--7---------------|-(7)----------||


   Guitar Solo 1
    Em
    Gtr I
     PM--------|                 PM|
     E  E E  E  E      E  E E    E  E E  E  E      E  E E
||---------------------7------|----------7h12p=====7------|
||o-------------8---------8---|-------8---------------8---|
||-----------9--------------9-|-----9-------------------9-|
||--------9-------------------|--9------------------------|
||o--7h10---------------------|---------------------------|
||----------------------------|---------------------------|
|
|   Gtr II
|    PM---|     PM----------|       PM|     PM----------|
|    E  E E  E  E      E  E E    E  E E  E  E      E  E E
||----------------------------|---------------------------|
||o---------------------------|---------------------------|
||----------------------------|---------------------------|
||-----------2----------------|--2-------2----------------|
||o----------2----------------|--2-------2----------------|
||---0--0-0--0--0------0--0-0-|--0--0-0--0--0------0--0-0-|
|
|   Gtr III
|    TP TP   TP TP TP  TP        TP TP   TP TP TP  TP
|    E  Q    E  T  S.  Q.        E  Q    E  T  S.  Q.
||--19-15---20-15-19--15------|-19-15---20-15-19--15------|
||o---------------------------|---------------------------|
||----------------------------|---------------------------|
||----------------------------|---------------------------|
||o---------------------------|---------------------------|
||----------------------------|---------------------------|


  C5
   PM------|                     ~~
   E  E  E  E  E      E  E  E    H        +H
|-------------12h====15p12----|----------------------|
|----------13--------------13-|----------------------|
|-------12--------------------|-12-------(12)\-------|
|-10h14-----------------------|----------------------|
|-----------------------------|----------------------|
|-----------------------------|----------------------|
|
|     PM|      PM----------|       PM|     PM------|
|  E  E  E  E  E      E  E  E    E E E E   E   E E E
|-----------------------------|----------------------|
|-----------------------------|----------------------|
|--5--------5-----------------|--5-----5-------------|
|--5--------5-----------------|--5-----5-------------|
|--3--3--3--3--3------3--3--3-|--3-3-3-3---3---3-3-3-|
|-----------------------------|----------------------|
|
|  TP TP    TP TP TP  TP         ~~
|  E  Q     E  T  S.  Q.         W
|-17-15----19-15-17--15-------|-15-------------------|
|-----------------------------|----------------------|
|-----------------------------|----------------------|
|-----------------------------|----------------------|
|-----------------------------|----------------------|
|-----------------------------|----------------------|


  D5                               B5
  Gtr I
   PM------|
   E  E  E  E  E      E   E  +E      E  E  E  E  E  E  +E    E
|--------------------------------|-/14p11----------11-(11)-/19-|
|--------------------------------|--------12----12-------------|
|----------11-14p====11----------|-----------11----------------|
|----12-14---------------12-(12)-|-----------------------------|
|-12-----------------------------|-----------------------------|
|--------------------------------|-----------------------------|
|
| Gtr II
|     PM|      PM-----------|
|  E  E  E  E  E      E   E   E      E  E  E  E  E  E   E    E
|--------------------------------|-----------------------------|
|--------------------------------|-----------------------------|
|--7--------7--------------------|-----------------------------|
|--7--------7--------------------|---9--------9----------------|
|--5--5--5--5--5------5---5---5--|---9--------9----------------|
|--------------------------------|---7--7--7--7--7--7---7----7-|
|
| Gtr III
|  TP TP    TP TP TP  TP             ~~~~~~~~~~~~~~~~~~~~~~~~~~~
|  E  Q     E  T  S.  Q.             W
|-17-14----19-14-17--14----------|--14-------------------------|
|--------------------------------|-----------------------------|
|--------------------------------|-----------------------------|
|--------------------------------|-----------------------------|
|--------------------------------|-----------------------------|
|--------------------------------|-----------------------------|


  Em                         C5
    E  E  E  E  E  E  E  E      W
|--19p15-------------------|------------||
|--------17----------------|-----------o||
|-----------16-------------|------------||
|--------------17-16-------|------------||
|--------------------19-18-|---19------o||
|--------------------------|------------||
|
|   E  E  E  E  E  E  E  E      W
|--------------------------|------------||
|--------------------------|-----------o||
|--------------------------|----5-------||
|---2--------2-------------|----5-------||
|---2--------2-------------|----3------o||
|---0--0--0--0--0--0--0--0-|------------||
|
|~~~~~~~~~~~~~~~~~~~~~~~~~~~~~~~~~~~
|   W                          +W
|-/24----------------------|-([24])-----||
|--------------------------|-----------o||
|--------------------------|------------||
|--------------------------|------------||
|--------------------------|-----------o||
|--------------------------|------------||


 Guitar Solo 2
  G5
  Gtr I
          PM---|      PM|          PM---|      PM|
    Q     E  E  E  E  E E    Q     E  E  E  E  E  E
|-------------------------|-------------------------|
|-------------------------|-------------------------|
|-------------------------|-------------------------|
|---5--------------5------|--5--------------5-------|
|---5--------------5------|--5--------------5-------|
|---3-----3--3--3--3--3-3-|--3-----3--3--3--3--3--3-|
|
| Gtr II
|   E  E  E  E  E  E  Q      E  E  E  E  E  E  E  E
|-----------10------------|-------10-------------11-|
|-----10-11----11-10------|-10S11----11-10----10----|
|-/12---------------------|----------------12-------|
|--------------------12---|-------------------------|
|-------------------------|-------------------------|
|-------------------------|-------------------------|


  Eb5
    Q   Q  X S.. q.                Q   Q          X S.. q.
|-------------------------------|-------------------------------|
|-------------------------------|-------------------------------|
|---8---8----8---8--------------|--8---8------------8---8-------|
|---8---8----8---8--------------|--8---8------------8---8-------|
|---6---6----6---6--------------|--6---6------------6---6-------|
|-------------------------------|-------------------------------|
|
|  +H.               S  S  S  S    Q   S.  S.  S  Q         Q
|-(11)-----------------10-11-10-|-------------------------------|
|-------------------13----------|-13--16--13--11-10-------------|
|-------------------------------|--------------------------12---|
|-------------------------------|-------------------------------|
|-------------------------------|-------------------------------|
|-------------------------------|-------------------------------|


  F5                        D5
  Gtr I
   Q    Q  X  S..  q.        Q   Q   X S.. q.
|-------------------------|-----------------------|
|-------------------------|-----------------------|
|-10---10----10---10------|--7---7-----7---7------|
|-10---10----10---10------|--7---7-----7---7------|
|--8----8-----8----8------|--5---5-----5---5------|
|-------------------------|-----------------------|
|
| Gtr II
|  H.                  Q     Q   Q   Q         Q
|-------------------------|-----------------------|
|-------------------------|-10------10--------13--|
|-10------------------12--|-----10----------------|
|-------------------------|-----------------------|
|-------------------------|-----------------------|
|-------------------------|-----------------------|


  G5                          Eb5
   Q   Q  X S.. q.             W
|---------------------------|-------|
|---------------------------|-------|
|---------------------------|--8----|
|--5---5----5---5-----------|--8----|
|--5---5----5---5-----------|--6----|
|--3---3----3---3-----------|-------|
|
|  H.               S  S  E    W
|---------------------------|-------|
|-11---------------10h11p10-|-------|
|---------------------------|-------|
|---------------------------|-13----|
|---------------------------|-------|
|---------------------------|-------|


  G5
  Gtr I
         PM---|      PM|           PM---|      PM|
   Q     E  E  E  E  E  E    Q     E  E  E  E  E  E
|-------------------------|-------------------------|
|-------------------------|-------------------------|
|-------------------------|-------------------------|
|--5--------------5-------|--5--------------5-------|
|--5--------------5-------|--5--------------5-------|
|--3-----3--3--3--3--3--3-|--3-----3--3--3--3--3--3-|
|
| Gtr II
|  E  E  E  E  E  E  E  E    E  E  E  E  E  E  E  E
|-------------------------|-------------------------|
|-15-13-------------------|-------------------------|
|-------15-14-12----------|-------------------------|
|----------------15-13-12-|----------12-13-15-13-12-|
|-------------------------|-13-12-13----------------|
|-------------------------|-------------------------|


  Eb5
   Q  Q  X S.. q.       Q      Q    X S..      q.
|-------------------|--------------------------------|
|-------------------|--------------------------------|
|--8--8----8---8----|---8------8------8--------8-----|
|--8--8----8---8----|---8------8------8--------8-----|
|--6--6----6---6----|---6------6------6--------6-----|
|-------------------|--------------------------------|
|
|                       TP  TP    TP
|  W                    E.  E.    E.       Q..
|-------------------|--------------------------------|
|-------------------|--------------------------------|
|-------------------|-/17--15----14S======12---------|
|-13----------------|--------------------------------|
|-------------------|--------------------------------|
|-------------------|--------------------------------|


  F5
  Gtr I
        PM-----|          PM----|
   Q    E E    E     E    E     E
|---------------------------------|
|---------------------------------|
|-10----------------10------------|
|-10----------------10------------|
|--8----8-8----8-----8----8-----8-|
|---------------------------------|
|
| Gtr II
|  Q..       E    E     E    E.
|---------------------------------|
|---------------------------------|
|-----------14---------14---------|
|-15-------------15---------15----|
|---------------------------------|
|---------------------------------|


  D5                               G5                Eb5
        PM-----|         PM----|       PM--|   PM|
   Q    E E    E    E    E     E    Q  E E E E E E    W
|--------------------------------|-----------------|-------|
|--------------------------------|-----------------|-------|
|--7----------------7------------|-----------------|--8----|
|--7----------------7------------|--5--------5-----|--8----|
|--5----5-5----5----5----5-----5-|--5--------5-----|--6----|
|--------------------------------|--3--3-3-3-3-3-3-|-------|
|
|  Q..       E    E    E    E.      W                 W
|--------------------------------|-----------------|-------|
|--------------------------------|-----------------|-------|
|-----------14--------14---------|-----------------|-------|
|-16-------------16--------16----|-17--------------|-------|
|--------------------------------|-----------------|-18----|
|--------------------------------|-----------------|-------|


   Keyboard Solo
    Em         C5         D5         B5
    Gtrs I, II
    W          W          W          W
||-----------|----------|----------|------|
||o----------|----------|----------|------|
||-----------|-5--------|-7--------|------|
||--2--------|-5--------|-7--------|-9----|
||o-2--------|-3--------|-5--------|-9----|
||--0--------|----------|----------|-7----|


  C5          A5         B5
  Gtrs I, II
   W          W          W          +W
|-----------|----------|----------|---------||
|-----------|----------|----------|--------o||
|-----------|----------|----------|---------||
|-10--------|-7--------|-9--------|-(9)-----||
|-10--------|-7--------|-9--------|-(9)----o||
|--8--------|-5--------|-7--------|-(7)-----||


 Out-Chorus
  E5         B/Eb       D5         A/C#
  Gtrs I, II
  W          W          W          W
|----------|----------|----------|------|
|----------|----------|----------|------|
|----------|----------|----------|------|
|-9--------|-9--------|-7--------|-7----|
|-7--------|-6--------|-5--------|-4----|
|----------|----------|----------|------|


  C5         G5         A5      Bb5       B5
  Gtrs I, II
                        PM------------------------------|
  W          W          E E E E E E E E   E E E E E E E E
|----------|----------|-----------------|-----------------|
|----------|----------|-----------------|-----------------|
|----------|----------|-----------------|-----------------|
|-5--------|----------|-----------------|-----------------|
|-3--------|-5--------|-7-------8-------|-9---------------|
|----------|-3--------|-5-5-5-5-6-6-6-6-|-7-7-7-7-7-7-7-7-|


  E5
  Gtr I
    PM----|   PM----|   PM|
  E S S S S E S S S S E S S
|---------------------------|
|---------------------------|
|---------------------------|
|-9---------9---------9-----|
|-7-7-7-7-7-7-7-7-7-7-7-7-7-|
|---------------------------|
|
| Gtr II
|   PM----|   PM----|   PM|
| E S S S S E S S S S E S S
|---------------------------|
|---------------------------|
|---------------------------|
|-5---------5---------5-----|
|---7-7-7-7---7-7-7-7---7-7-|
|---------------------------|


  B/Eb                        D5
    PM----|   PM----|   PM|     PM----|   PM----|   PM|
  E S S S S E S S S S E S S   E S S S S E S S S S E S S
|---------------------------|---------------------------|
|---------------------------|---------------------------|
|---------------------------|---------------------------|
|-9---------9---------9-----|-7---------7---------7-----|
|-6-6-6-6-6-6-6-6-6-6-6-6-6-|-5-5-5-5-5-5-5-5-5-5-5-5-5-|
|---------------------------|---------------------------|
|
|   PM----|   PM----|   PM|     PM----|   PM----|   PM|
| E S S S S E S S S S E S S   E S S S S E S S S S E S S
|---------------------------|---------------------------|
|---------------------------|---------------------------|
|---------------------------|---------------------------|
|-5---------5---------5-----|-4---------4---------4-----|
|---6-6-6-6---6-6-6-6---6-6-|---5-5-5-5---5-5-5-5---5-5-|
|---------------------------|---------------------------|


  A/C#                        C5
  Gtr I
    PM----|   PM----|   PM|     PM----|   PM----|   PM|
  E S S S S E S S S S E S S   E S S S S E S S S S E S S
|---------------------------|---------------------------|
|---------------------------|---------------------------|
|---------------------------|---------------------------|
|-7---------7---------7-----|-5---------5---------5-----|
|-4-4-4-4-4-4-4-4-4-4-4-4-4-|-3-3-3-3-3-3-3-3-3-3-3-3-3-|
|---------------------------|---------------------------|
|
| Gtr II
|   PM----|   PM----|   PM|     PM----|   PM----|   PM|
| E S S S S E S S S S E S S   E S S S S E S S S S E S S
|---------------------------|---------------------------|
|---------------------------|---------------------------|
|---------------------------|---------------------------|
|---------------------------|---------------------------|
|-7---------7---------7-----|-7---------7---------7-----|
|---9-9-9-9---9-9-9-9---9-9-|---8-8-8-8---8-8-8-8---8-8-|


  G5                          A5   Bb5    B5         B5
    PM----|   PM----|   PM|
  E S S S S E S S S S E S S   H    H      W          E H..
|---------------------------|-----------|----------|----------|
|---------------------------|-----------|----------|----------|
|---------------------------|-----------|----------|----------|
|---------------------------|-----------|----------|----------|
|-5---------5---------5-----|-7----8----|-9--------|-9--------|
|-3-3-3-3-3-3-3-3-3-3-3-3-3-|-5----6----|-7--------|-7--------|
|
|   PM----|   PM----|   PM|
| E S S S S E S S S S E S S   H    H      W          E H..
|---------------------------|-----------|----------|----------|
|---------------------------|-----------|----------|----------|
|---------------------------|-----------|----------|----------|
|---------------------------|-----------|----------|----------|
|-5---------5---------5-----|-7----8----|-9--------|-9--------|
|---7-7-7-7---7-7-7-7---7-7-|-5----6----|-7--------|-7--------|


   Outro
    N.C.
   8/4
    Gtr I
                                       PM---------|
     H     H     H     Q   Q     Q.    S  S  E  E  E  E  Q   Q  Q   Q
||----------------------------|-----------------------------------------||
||o---------------------------|----------------------------------------o||
||----------------------------|-----------------------------------------||
||---------------------7---9--|-10----10-10-10--9--7--------------------||
||o--7-----9----10------------|----------------------10--9---7--6---9--o||
||----------------------------|-----------------------------------------||
|
|   Gtr II
|                                      PM---------|
|    H     H     H     Q   Q     Q.    S  S  E  E  E  E  Q   Q  Q   Q
||----------------------------|-----------------------------------------||
||o---------------------------|----------------------------------------o||
||----------------------------|--9-----9--9--9--------------------------||
||---------------9----10--12--|----------------12-10--9-----------------||
||o-10----12------------------|-------------------------12--10--9--12--o||
||----------------------------|-----------------------------------------||


  C5                                                              Em
  Gtr I
                                                 >
  W        +W           +W         +W           +W         +H     E Q.
|---------------------|-----------------------|--------------------------*|
|---------------------|-----------------------|--------------------------*|
|-5--------(5)--------|-(5)--------(5)--------|-(5)--------(5)-----------*|
|-5--------(5)--------|-(5)--------(5)--------|-(5)--------(5)-----------*|
|-3--------(3)--------|-(3)--------(3)--------|-(3)--------(3)----2-2----*|
|---------------------|-----------------------|-------------------0-0----*|
|
| Gtr II
|                                                >
| W        +W           +W         +W           +W         +H     E Q.
|---------------------|-----------------------|--------------------------*|
|---------------------|-----------------------|--------------------------*|
|---------------------|-----------------------|--------------------------*|
|---------------------|-----------------------|--------------------------*|
|-7--------(7)--------|-(7)--------(7)--------|-(7)--------(7)----2-2----*|
|---------------------|-----------------------|-------------------0-0----*|



Duration Legend
---------------
W - whole; H - half; Q - quarter; E - 8th; S - 16th; T - 32nd; X - 64th; a - acciaccatura
+ - note tied to previous; . - note dotted; .. - note double dotted
Uncapitalized letters represent notes that are staccato (1/2 duration)
Irregular groupings are notated above the duration line
Duration letters will always appear directly above the note/fret number it represents the
duration for.  Duration letters with no fret number below them represent rests.  Multi-
bar rests are notated in the form Wxn, where n is the number of bars to rest for.  Low
melody durations appear below the staff

Tablature Legend
----------------
 h   - hammer-on
 p   - pull-off
 b   - bend
 pb  - pre-bend
 r   - bend release (if no number after the r, then release immediately)
 /\  - slide into or out of (from/to "nowhere")
 s   - legato slide
 S   - shift slide
 - natural harmonic
[n]  - artificial harmonic
n(n) - tapped harmonic
 ~   - vibrato
 tr  - trill
 T   - tap
 TP  - trem. picking
 PM  - palm muting
\n/  - tremolo bar dip; n = amount to dip
 \n  - tremolo bar down
 n/  - tremolo bar up
/n\  - tremolo bar inverted dip
 =   - hold bend; also acts as connecting device for hammers/pulls
 <> - volume swell (louder/softer)
 x   - on rhythm slash represents muted slash
 o   - on rhythm slash represents single note slash

Misc Legend
-----------
 |  - bar
||  - double bar
||o - repeat start
o|| - repeat end
*|  - double bar (ending)
 :  - bar (freetime)
 $  - Segno
 &  - Coda
Tempo markers -  = BPM(8/16=s8/s16), where s8 = swing 8ths, s16 = swing 16ths

Добавлено: 24.03.2012
Другие материалы по этой песне:

Страница создана 19.03.2012
http://primanota.ru/insania/beware-of-the-dragons-chords.htm
Привет, Гость.
Предлагаем пройти революционный курс по гитаре.
Подарок от PrimaNota.Ru, забирай!