PrimaNota.ru - самый крупный в мире бесплатный архив песенных текстов, аккордов, табулатур и нот


Insane Clown Posse - When Im Clownin - таба, видео

Регистрация Запомнить меня
Войти через:  Facebook Google Twitter Vk Yandex Mail.ru

Insane Clown Posse - When Im Clownin - таба, видео

Печатать
Просмотров: 90
G]------------5-3-5--------3--------------5-3-5----|
D]---------------------3-5-------------------------|
A]---3-3--------------------------3-3--------------|
E]-------------------------------------------------|

G]------------5-3-5--------3--------------5-3-5----|
D]---------------------3-5-------------------------|
A]---3-3--------------------------3-3--------------|
E]-------------------------------------------------|
Добавлено: 25.06.2013
Другие материалы по этой песне:
  • Аккорды и текст

Страница создана 25.06.2013
http://primanota.ru/insane-clown-posse/when-im-clownin-chords.htm
Привет, Гость.
Предлагаем пройти революционный курс по гитаре.
Подарок от PrimaNota.Ru, забирай!