PrimaNota.ru - самый крупный в мире бесплатный архив песенных текстов, аккордов, табулатур и нот


Insane Clown Posse - Walk Into The Light - текст песни, таба, видео

Регистрация Запомнить меня
Войти через:  Facebook Google Twitter Vk Yandex Mail.ru

Insane Clown Posse - Walk Into The Light - текст песни, таба, видео

Печатать
Просмотров: 131
                               WALK INTO THY LIGHT
                        As recorded by Insane Clown Posse
                  (From the 2002 Album THE WRAITH: SHANGRI-LA)

Words by Insane Clown Posse

Music by Mike P. and Insane Clown Posse
Arranged by Insane Clown Posse

Gtr I (E A D G B E)
Gtr II (E A D G B E)

 Intro
  Q=100
  Csus4/F          G5                Csus4/F          C       Dadd11
 4/4
  Gtr I
  E E E E +H       E E E E +Q   Q    E E E E +H       E E E E E E E E
|----------------|-----------------|----------------|------------------|
|----------------|-----------------|----------------|------------------|
|-------0-(0)----|-------0-(0)-----|-------0-(0)----|---0-------0------|
|-----3----------|-----5--------5--|-----3----------|-----2-------4----|
|---3------------|---5-------------|---3------------|-3-----3-5-----5--|
|-1--------------|-3---------------|-1--------------|------------------|


  Csus4/F          G5                  Csus4/F          C       Dadd11
  E E E E +H       E E E E +Q    E E   E E E E +H       E E E E E E E E
|----------------|-------------------|----------------|-----------------||
|----------------|-------------------|----------------|-----------------||
|-------0-(0)----|-------0-(0)-------|-------0-(0)----|---0-------0-----||
|-----3----------|-----5-------------|-----3----------|-----2-------4---||
|---3------------|---5---------------|---3------------|-3-----3-5-----5-||
|-1--------------|-3------------/5-3-|-1--------------|-----------------||


 Verse I
  F5               N.C.          Dm7/F         N.C.
  E E E E +H       E H..         E E E Q    Q  E   E H..
|----------------|-------------|-----------------|----------|
|-------1-(1)----|-1s3---------|-------3b5--3--1-|-1s3------|
|----------------|-------------|-----------------|----------|
|-----3----------|-------------|-----3-----------|----------|
|---3------------|-------------|---3-------------|----------|
|-1--------------|-------------|-1---------------|----------|


  F5               N.C.          Csus4/F          C           Dadd11
  E E E E +H       E H..         E E E E +H        E   E  E E  E   E  E E
|----------------|-------------|----------------|-------------------------|
|-------1-(1)----|-1s3---------|----------------|-------------------------|
|----------------|-------------|-------0-(0)----|-----(0)---------(0)-----|
|-----3----------|-------------|-----3----------|---------2-----------4---|
|---3------------|-------------|---3------------|-(3)-------3-(5)-------5-|
|-1--------------|-------------|-1--------------|-------------------------|


  F5               N.C.          Dm7/F         N.C.
  E E E E +H       E H..         E E Q  E.  E. E   E H..
|----------------|-------------|-----------------|----------|
|-------1-(1)----|-1s3---------|--------3b5-3--1-|-1s3------|
|----------------|-------------|-----------------|----------|
|-----3----------|-------------|-----3-----------|----------|
|---3------------|-------------|---3-------------|----------|
|-1--------------|-------------|-1---------------|----------|


  F5               N.C.          Csus4/F          C           Dadd11
  E E E E +H       E H..         E E E E +H        E   E  E E  E   E  E E
|----------------|-------------|----------------|-------------------------||
|-------1-(1)----|-1s3---------|----------------|-------------------------||
|----------------|-------------|-------0-(0)----|-----(0)---------(0)-----||
|-----3----------|-------------|-----3----------|---------2-----------4---||
|---3------------|-------------|---3------------|-(3)-------3-(5)-------5-||
|-1--------------|-------------|-1--------------|-------------------------||


   Chorus
    $
    Csus4/F                 G5
     E  E E  E +H            E E E E +Q   Q
||------------------------|------------------|
||o-----------------------|------------------|
||-----------0-(0)--------|--------0-(0)-----|
||--------3---------------|------5--------5--|
||o-----3-----------------|----5-------------|
||---1--------------------|--3---------------|



                                    To Coda
  Csus4/F                 C        Dadd11
   E  E E  E +H            E E E E E E E E
|-----------------------|--------------------||
|-----------------------|-------------------o||
|----------0-(0)--------|----0-------0-------||
|-------3---------------|------2-------4-----||
|-----3-----------------|--3-----3-5-----5--o||
|--1--------------------|--------------------||


 Verse II
  F5               N.C.          Dm7/F         N.C.
  E E E E +H       E H..         E E E Q    Q  E   E H..
|----------------|-------------|-----------------|----------|
|-------1-(1)----|-1s3---------|-------3b5--3--1-|-1s3------|
|----------------|-------------|-----------------|----------|
|-----3----------|-------------|-----3-----------|----------|
|---3------------|-------------|---3-------------|----------|
|-1--------------|-------------|-1---------------|----------|


  F5               N.C.          Csus4/F           N.C.
  E E E E +H       E H..         E E E E +Q.   E   E H..
|----------------|-------------|-----------------|----------|
|-------1-(1)----|-1s3---------|---------------1-|-1s3------|
|----------------|-------------|-------0-(0)-----|----------|
|-----3----------|-------------|-----3-----------|----------|
|---3------------|-------------|---3-------------|----------|
|-1--------------|-------------|-1---------------|----------|


  F5               N.C.          Dm7/F         N.C.
  E E E E +H       E H..         E E Q  E.  E. E   E H..
|----------------|-------------|-----------------|----------|
|-------1-(1)----|-1s3---------|--------3b5-3--1-|-1s3------|
|----------------|-------------|-----------------|----------|
|-----3----------|-------------|-----3-----------|----------|
|---3------------|-------------|---3-------------|----------|
|-1--------------|-------------|-1---------------|----------|


                                                            D.S. al Coda
  F5               N.C.          Csus4/F          C5          G5/D
  E E E E +H       E H..         E E E E +H        E   E  E E  E   E  E E
|----------------|-------------|----------------|-------------------------||
|-------1-(1)----|-1s3---------|----------------|---------1-----------3---||
|----------------|-------------|-------0-(0)----|-----(0)---0-----(0)---0-||
|-----3----------|-------------|-----3----------|-------------------------||
|---3------------|-------------|---3------------|-(3)---------(5)---------||
|-1--------------|-------------|-1--------------|-------------------------||


 Verse III
  &
  F5                         Fsus2
  Q.   E +H       W          Q.   E +H       W
|---------------|----------|---------------|------|
|------1-(1)----|----------|---------------|------|
|---------------|----------|------0-(0)----|------|
|---------------|----------|---------------|------|
|---------------|----------|---------------|------|
|-1-------------|----------|-1-------------|------|


  F5                              N.C.
  Q.   E +H       W          H    E.  E. E   E H..
|---------------|----------|---------------|----------||
|------1-(1)----|----------|------3b5-3--1-|-1s3------||
|---------------|----------|---------------|----------||
|---------------|----------|---------------|----------||
|---------------|----------|---------------|----------||
|-1-------------|----------|---------------|----------||


   Chorus
    Csus4/F                 G5
     E  E E  E +H            E E E E +Q   Q
||------------------------|------------------|
||o-----------------------|------------------|
||-----------0-(0)--------|--------0-(0)-----|
||--------3---------------|------5--------5--|
||o-----3-----------------|----5-------------|
||---1--------------------|--3---------------|


  Csus4/F                 C        Dadd11
   E  E E  E +H            E E E E E E E E   4x
|-----------------------|--------------------||
|-----------------------|-------------------o||
|----------0-(0)--------|----0-------0-------||
|-------3---------------|------2-------4-----||
|-----3-----------------|--3-----3-5-----5--o||
|--1--------------------|--------------------||


   Outro
    Csus4/F                     G5
     E   E   E   E +H            E E   E E +Q   Q
||----------------------------|--------------------|
||o---------------------------|--------------------|
||---------------0-(0)--------|----------0-(0)-----|
||-----------3----------------|--------5--------5--|
||o------3--------------------|----5---------------|
||---1------------------------|--3-----------------|
|
|    Q.          H        +E     W
||--13------------------------|--------------------|
||o-------------13-------(13)-|-15-----------------|
||----------------------------|--------------------|
||----------------------------|--------------------|
||o---------------------------|--------------------|
||----------------------------|--------------------|
|
|   Gtr II
|    E   E   E   E +H            E H..
||----------------------------|--------------------|
||o--------------1-(1)--------|--1s3---------------|
||----------------------------|--------------------|
||----------(3)---------------|--------------------|
||o-----(3)-------------------|--------------------|
||--(1)-----------------------|--------------------|


  Csus4/F                        C          Dadd11
   E   E   E   E   +H             E E   E E E E E E
|------------------------------|----------------------||
|------------------------------|---------------------o||
|--------------0---(0)---------|----0---------0-------||
|----------3-------------------|--------2-------4-----||
|------3-----------------------|--3-------3-5-----5--o||
|--1---------------------------|----------------------||
|
|  Q.          H           +E     W
|-13----------15----------(15)-|----------------------||
|------------------------------|-13------------------o||
|------------------------------|----------------------||
|------------------------------|----------------------||
|------------------------------|---------------------o||
|------------------------------|----------------------||
|
|  E   E   E   Q       Q    E     E H..
|------------------------------|----------------------||
|--------------3b5-----3----1--|--1s3----------------o||
|------------------------------|----------------------||
|---------(3)------------------|----------------------||
|-----(3)----------------------|---------------------o||
|-(1)--------------------------|----------------------||


Duration Legend
---------------
W - whole; H - half; Q - quarter; E - 8th; S - 16th; T - 32nd; X - 64th; a - acciaccatura
+ - note tied to previous; . - note dotted; .. - note double dotted
Uncapitalized letters represent notes that are staccato (1/2 duration)
Irregular groupings are notated above the duration line
Duration letters will always appear directly above the note/fret number it represents the
duration for.  Duration letters with no fret number below them represent rests.  Multi-
bar rests are notated in the form Wxn, where n is the number of bars to rest for.  Low
melody durations appear below the staff

Tablature Legend
----------------
 h   - hammer-on
 p   - pull-off
 b   - bend
 pb  - pre-bend
 r   - bend release (if no number after the r, then release immediately)
 /\  - slide into or out of (from/to "nowhere")
 s   - legato slide
 S   - shift slide
  - natural harmonic
[n]  - artificial harmonic
n(n) - tapped harmonic
 ~   - vibrato
 tr  - trill
 T   - tap
 TP  - trem. picking
 PM  - palm muting
\n/  - tremolo bar dip; n = amount to dip
 \n  - tremolo bar down
 n/  - tremolo bar up
/n\  - tremolo bar inverted dip
 =   - hold bend; also acts as connecting device for hammers/pulls
 <>  - volume swell (louder/softer)
 x   - on rhythm slash represents muted slash
 o   - on rhythm slash represents single note slash

Misc Legend
-----------
 |  - bar
||  - double bar
||o - repeat start
o|| - repeat end
*|  - double bar (ending)
 :  - bar (freetime)
 $  - Segno
 &  - Coda
Tempo markers -  = BPM(8/16=s8/s16), where s8 = swing 8ths, s16 = swing 16ths


Добавлено: 02.07.2013
Другие материалы по этой песне:
  • Аккорды и текст

Страница создана 21.04.2012
http://primanota.ru/insane-clown-posse/walk-into-the-light-chords.htm
Привет, Гость.
Предлагаем пройти революционный курс по гитаре.
Подарок от PrimaNota.Ru, забирай!