PrimaNota.ru - самый крупный в мире бесплатный архив песенных текстов, аккордов, табулатур и нот


Insane Clown Posse - To Catch A Predator - таба, видео

Регистрация Запомнить меня
Войти через:  Facebook Google Twitter Vk Yandex Mail.ru

Insane Clown Posse - To Catch A Predator - таба, видео

Печатать
Просмотров: 72
Уроки эстрадного вокала в Санкт-Петербурге
Intro:
e|-----------------------------------------------------|
B|-----------------------------------------------------|
G|-----------------------------------------------------|
D|-----------------------------------------------------|
A|-----------------------------------------------------|
E|--1/3--4-0--0-0-0--1/3--4-0--0-0-0--1/3--4-0--0-0-0--|

Guitar 2
e|-----------------------------------------------------|
B|-----------------------------------------------------|
G|----------------Feed back----------------------------|
D|-----------------------------------------------------|
A|-----------------------------------------------------|
E|-----------------------------------------------------|


VERSE 1:
e|---------------|----------------------------------------|
B|---------------|----------------------------------------|
G|---------------|----------------------------------------|
D|-2-2--x----2---|----------------------------------------|
A|-2-2--x2---2---|--7----5----9---------------------------|
E|-0-0--x0---0---|--5----3----7---------------------------|
 PM-------------------------------------------------------|
    Repeat (3x)

e|---------------|----------------------------------------|
B|---------------|----------------------------------------|
G|---------------|----------------------------------------|
D|-2-2--x----2---|----------------------------------------|
A|-2-2--x2---2---|--7----5----9---------------------------|
E|-0-0--x0---0---|--5----3----7---------------------------|
 PM-------------------------------------------------------|
    Repeat (3x)

e|---------------|----------------------------------------|
B|---------------|----------------------------------------|
G|---------------|----------------------------------------|
D|-2-2--x----2---|----------------------------------------|
A|-2-2--x2---2---|--7----5----9---------------------------|
E|-0-0--x0---0---|--5----3----7---------------------------|
 PM-------------------------------------------------------|
    Repeat (3x)

Guitar 2
e|-----------------------------------------------------|
B|-----------------------------------------------------|
G|-----------------------------------------------------|
D|-----------------------------------------------------|
A|-7-7-7-101010-7-7-10-7-7-7-99-7-7-9-9-9-7-7-7-101010-|
E|-----------------------------------------------------|

e|-----------------------------------------------------|
B|-----------------------------------------------------|
G|-----------------------------------------------------|
D|-----------------------------------------------------|
A|-7-7-10-7--------------------------------------------|
E|-----------------------------------------------------|

e|---------------|------------------------------|
B|---------------|------------------------------|
G|---------------|------------------------------|
D|------x----2---|-2-2--x----2------------------|
A|------x2---2---|-2-2--x2---2------------------|
E|------x0---0---|-0-0--x0---0------------------|
 PM-------|     PM------------------------------|
    			Repeat (3x)

Guitar 2
e|-----------------------------------------------------|
B|-----------------------------------------------------|
G|-----------------------------------------------------|
D|-----------------------------------------------------|
A|-----7-101010-7-7-10-7-7-7-99-7-7-9-9-9-7-7-7-101010-|
E|-----------------------------------------------------|

e|-----------------------------------------------------|
B|-----------------------------------------------------|
G|-----------------------------------------------------|
D|-----------------------------------------------------|
A|-7-7-10-7--------------------------------------------|
E|-----------------------------------------------------|

CHORUS 1:
e|-----------------------------------------------------|
B|-----------------------------------------------------|
G|-----------------------------------------------------|
D|-----------------------------------------------------|
A|-14---13---12---11--10--9----------------------------|
E|-12---11---10---9---8---7---1/3--4-0--0-0-0--1/3--4-0|

e|-----------------------------------------------------|
B|-----------------------------------------------------|
G|-----------------------------------------------------|
D|-----------------------------------------------------|
A|-----------------------------------------------------|
E|-1/3--4-0--------------------------------------------|

e|-----------------------------------------------------|
B|-----------------------------------------------------|
G|-----------------------------------------------------|
D|-----------------------------------------------------|
A|-14---13---12---11--10--9----------------------------|
E|-12---11---10---9---8---7---1/3--4-0--0-0-0--1/3--4-0|

Verse 2:
e|---------------|----------------------------------------|
B|---------------|----------------------------------------|
G|---------------|----------------------------------------|
D|-2-2--x----2---|----------------------------------------|
A|-2-2--x2---2---|--7----5----9---------------------------|
E|-0-0--x0---0---|--5----3----7---------------------------|
 PM-------------------------------------------------------|
    Repeat (3x)

e|---------------|----------------------------------------|
B|---------------|----------------------------------------|
G|---------------|----------------------------------------|
D|-2-2--x----2---|----------------------------------------|
A|-2-2--x2---2---|--7----5----9---------------------------|
E|-0-0--x0---0---|--5----3----7---------------------------|
 PM-------------------------------------------------------|
    Repeat (3x)

e|---------------|----------------------------------------|
B|---------------|----------------------------------------|
G|---------------|----------------------------------------|
D|-2-2--x----2---|----------------------------------------|
A|-2-2--x2---2---|--7----5----9---------------------------|
E|-0-0--x0---0---|--5----3----7---------------------------|
 PM-------------------------------------------------------|
    Repeat (3x)


Guitar 2
e|-----------------------------------------------------|
B|-----------------------------------------------------|
G|-----------------------------------------------------|
D|-----------------------------------------------------|
A|-7-7-7-101010-7-7-10-7-7-7-99-7-7-9-9-9-7-7-7-101010-|
E|-----------------------------------------------------|

e|-----------------------------------------------------|
B|-----------------------------------------------------|
G|-----------------------------------------------------|
D|-----------------------------------------------------|
A|-7-7-10-7--------------------------------------------|
E|-----------------------------------------------------|


e|---------------|----------------------|
B|---------------|----------------------|
G|---------------|----------------------|
D|------x----2---|-2-2--x----2----------|
A|------x2---2---|-2-2--x2---2----------|
E|------x0---0---|-0-0--x0---0----------|
 PM-------|     PM----------------------|
    			Repeat (2x)

Guitar 2
e|-----------------------------------------------------|
B|-----------------------------------------------------|
G|-----------------------------------------------------|
D|-----------------------------------------------------|
A|-----7-101010-7-7-10-7-7-7-99-7-7-9-9-9-7-7-7-101010-|
E|-----------------------------------------------------|

e|-----------------------------------------------------|
B|-----------------------------------------------------|
G|-----------------------------------------------------|
D|-----------------------------------------------------|
A|-7-7-10-7--------------------------------------------|
E|-----------------------------------------------------|

e|-----------------------------------------------------|
B|-----------------------------------------------------|
G|-----------------------------------------------------|
D|-----------------------------------------------------|
A|--7--------------------------------------------------|
E|--5--------------------------------------------------|

Breakdown:
e|-----------------------------------------------------|
B|-----------------------------------------------------|
G|-9-9-9-9-9-9b(full step)-9-9-9-9-9-9-9-9-9-9-9b-9-9--|
D|-----------------------------------------------------|
A|-----------------------------------------------------|
E|-----------------------------------------------------|
	You get the Idea lol I hope XD

Verse 3:
e|-----------------|
B|-----------------|
G|-----------------|
D|-2-2--x----2-----|
A|-2-2--x2---2-----|
E|-0-0--x0---0-----|
 PM----------------|
    Repeat (4x)

CHORUS 2:
e|-----------------------------------------------------|
B|-----------------------------------------------------|
G|-----------------------------------------------------|
D|-----------------------------------------------------|
A|-14---13---12---11--10--9----------------------------|
E|-12---11---10---9---8---7---1/3--4-0--0-0-0--1/3--4-0|

e|-----------------------------------------------------|
B|-----------------------------------------------------|
G|-----------------------------------------------------|
D|-----------------------------------------------------|
A|-----------------------------------------------------|
E|-1/3--4-0--------------------------------------------|

e|-----------------------------------------------------|
B|-----------------------------------------------------|
G|-----------------------------------------------------|
D|-----------------------------------------------------|
A|-14---13---12---11--10--9----------------------------|
E|-12---11---10---9---8---7---1/3--4-0--0-0-0--1/3--4-0|

Breakdown 2:
e|-----------------------------------------------------|
B|-----------------------------------------------------|
G|-9-9-9-9-9-9b(full step)-9-9-9-9-9-9-9-9-9-9-9b-9-9--|
D|-----------------------------------------------------|
A|-----------------------------------------------------|
E|-----------------------------------------------------|


Verse 3:
e|---------------|----------------------------------------|
B|---------------|----------------------------------------|
G|---------------|----------------------------------------|
D|-2-2--x----2---|----------------------------------------|
A|-2-2--x2---2---|--7----5----9---------------------------|
E|-0-0--x0---0---|--5----3----7---------------------------|
 PM-------------------------------------------------------|
    Repeat (3x)

e|---------------|----------------------------------------|
B|---------------|----------------------------------------|
G|---------------|----------------------------------------|
D|-2-2--x----2---|----------------------------------------|
A|-2-2--x2---2---|----------------------------------------|
E|-0-0--x0---0---|----------------------------------------|
 PM-------------------------------------------------------|
    Repeat (3x)

e|---------------|---------------------------------------|
B|---------------|---------------------------------------|
G|---------------|---------------------------------------|
D|-2-2--x----2---|---------------------------------------|
A|-2-2--x2---2---|--7----5---9---------------------------|
E|-0-0--x0---0---|--5----3---7---------------------------|
 PM------------------------------------------------------|
    Repeat (3x)


Guitar 2
e|-----------------------------------------------------|
B|-----------------------------------------------------|
G|-----------------------------------------------------|
D|-----------------------------------------------------|
A|-7-7-7-101010-7-7-10-7-7-7-99-7-7-9-9-9-7-7-7-101010-|
E|-----------------------------------------------------|

e|-----------------------------------------------------|
B|-----------------------------------------------------|
G|-----------------------------------------------------|
D|-----------------------------------------------------|
A|-7-7-10-7--------------------------------------------|
E|-----------------------------------------------------|


e|---------------|--------------------------------------|
B|---------------|--------------------------------------|
G|---------------|--------------------------------------|
D|-2-2--x----2---|--------------------------------------|
A|-2-2--x2---2---|--7-----------------------------------|
E|-0-0--x0---0---|--5-----------------------------------|
 PM-----------------------------------------------------|
    Repeat (3x)


Guitar 2
e|-----------------------------------------------------|
B|-----------------------------------------------------|
G|-----------------------------------------------------|
D|-----------------------------------------------------|
A|-7-7-7-101010-7-7-10-7-7-7-99-7-7-9-9-9-7-7-7-101010-|
E|-----------------------------------------------------|

e|-----------------------------------------------------|
B|-----------------------------------------------------|
G|-----------------------------------------------------|
D|-----------------------------------------------------|
A|-7-7-10-7--------------------------------------------|
E|-----------------------------------------------------|


Breakdown 3:
e|-----------------------------------------------------|
B|-----------------------------------------------------|
G|-9-9-9-9-9-9b(full step)-9-9-9-9-9-9-9-9-9-9-9b-9-9--|
D|-----------------------------------------------------|
A|-----------------------------------------------------|
E|-----------------------------------------------------|
	You get the Idea lol I hope XD

Verse 4:
e|-----------------|
B|-----------------|
G|-----------------|
D|-2-2--x----2-----|
A|-2-2--x2---2-----|
E|-0-0--x0---0-----|
 PM----------------|
    Repeat (4x)

CHORUS 3:
e|-----------------------------------------------------|
B|-----------------------------------------------------|
G|-----------------------------------------------------|
D|-----------------------------------------------------|
A|-14---13---12---11--10--9----------------------------|
E|-12---11---10---9---8---7---1/3--4-0--0-0-0--1/3--4-0|

e|-----------------------------------------------------|
B|-----------------------------------------------------|
G|-----------------------------------------------------|
D|-----------------------------------------------------|
A|-----------------------------------------------------|
E|-1/3--4-0--------------------------------------------|

e|-----------------------------------------------------|
B|-----------------------------------------------------|
G|-----------------------------------------------------|
D|-----------------------------------------------------|
A|-14---13---12---11--10--9----------------------------|
E|-12---11---10---9---8---7---1/3--4-0--0-0-0--1/3--4-0|

outro:
e|-------------------------------------------------------|
B|-------------------------------------------------------|
G|-------------------------------------------------------|
D|-------------------------------------------------------|
A|-------------------------------------------------------|
E|-->\\\\\\\\\\\-f---------------------------------------|

e|-----------------------------------------------------|
B|-10/12-10-5-5/7-------10/12-10-5-5/7-----------------|
G|-----------------------------------------------------|
D|-----------------------------------------------------|
A|-----------------------------------------------------|
E|-----------------------------------------------------|

---------------------------------------------------------
Добавлено: 10.10.2013
Вам также может быть интересно:
Другие материалы по этой песне:
  • Аккорды и текст

Страница создана 10.10.2013
http://primanota.ru/insane-clown-posse/to-catch-a-predator-chords.htm
Привет, Гость.
Предлагаем пройти революционный курс по гитаре.
Подарок от PrimaNota.Ru, забирай!