PrimaNota.ru - самый крупный в мире бесплатный архив песенных текстов, аккордов, табулатур и нот


Insane Clown Posse - Take It! - текст песни, таба, видео

Регистрация Запомнить меня
Войти через:  Facebook Google Twitter Vk Yandex Mail.ru

Insane Clown Posse - Take It! - текст песни, таба, видео

Печатать
Просмотров: 65
Intro
-----------------------------|
-----------------------------|
-----------------------------|
-----------------------------|
-2b--------------------------|
-----------------------------|

Verse (PALM MUTE)
-------------------|
-------------------|
-------------------|
2---8--7--6--5--4--|
2---8--7--6--5--4--|
0---6--5--4--3--2--|

Chorus
-------------------|
-------------------|
-------------------|
2---8--7--6--5--4--|
2---8--7--6--5--4--|
0---6--5--4--3--2--|
Добавлено: 22.09.2013
Другие материалы по этой песне:
  • Аккорды и текст

Страница создана 18.07.2012
http://primanota.ru/insane-clown-posse/take-it-chords.htm
Привет, Гость.
Предлагаем пройти революционный курс по гитаре.
Подарок от PrimaNota.Ru, забирай!