PrimaNota.ru - самый крупный в мире бесплатный архив песенных текстов, аккордов, табулатур и нот


Insane Clown Posse - If I Was A Serial Killer - текст песни, таба, видео

Регистрация Запомнить меня
Войти через:  Facebook Google Twitter Vk Yandex Mail.ru

Insane Clown Posse - If I Was A Serial Killer - текст песни, таба, видео

Печатать
Просмотров: 87
e|--------------------------------------------------------------|
B|--------------------------------------------------------------|
G|--------------------------------------------------------------|
D|--------12-12--------12-14-12-14-14b15b14v~~~-----------------|
A|--12-14--------12-14------------------------------------------|
E|--------------------------------------------------------------|

e|---------------------------------------------------------------------------|
B|-12------------------------------------------------------------------------|
G|----11---------------------------------------------------------------------|
D|-------14-12-14----------------12-12----12-14b15b14--14b15b14-14b15b14-12v~|
A|-----------------14v~-12-12-14-------14------------------------------------|
E|---------------------------------------------------------------------------|


e|-----------------------------------------------------------------|
B|---12------------------------------------------------------------|
G|------11------------------11----------------------11-11----------|
D|---------14-14b15b14-12-14----14-12-14-------12-14-------14-12---|
A|--------------------------------------12-14----------------------|
E|-----------------------------------------------------------------|

e|--------------------------------------------------------------|
B|---------------------------------------------------10s12------|
G|-------------11-----------------11-----11-11-14-11------------|
D|-----12-14------14--14-12---12-----14-------------------------|
A|--14---------------------14-----------------------------------|
E|--------------------------------------------------------------|

e|--------------------------------------------------------------|
B|--15-12----12--12-12-15-12-15-17-17b19b17-15-12-12--15-15-----|
G|--------14----------------------------------------------------|
D|--------------------------------------------------------------|
A|--------------------------------------------------------------|
E|--------------------------------------------------------------|
        
e|-------------------------------------------------------------|
B|-----------12s10---------------------------------------------|
G|-14s11--11-------11s9----------------------------------------|
D|----------------------14b15-b1412-14b15-b1412-14p1214--12v~~-|
A|-------------------------------------------------------------|
E|-------------------------------------------------------------|

e|---------------------------------------------------------------|
B|---------------------------------------------------------------|
G|---------------------------------------------------------------|
D|----12-14b15b14-12----12-----12-14b15b14-14-12----12-14-12-14v-|
A|-14----------------14-----14-------------------14--------------|
E|---------------------------------------------------------------|


e|--------------------------------------------------------------|
B|-12-----------------------------------------------------------|
G|----11-14v~b16b14v~-14p11--11---------------------------------|
D|-------------------------14---14-12-14s12s14-12v~~~-----------|
A|--------------------------------------------------------------|
E|--------------------------------------------------------------|

I will but the next part in few days hear is the first of it MCL!
Добавлено: 22.07.2013
Другие материалы по этой песне:
  • Аккорды и текст

Страница создана 05.04.2012
http://primanota.ru/insane-clown-posse/if-i-was-a-serial-killer-chords.htm
Привет, Гость.
Предлагаем пройти революционный курс по гитаре.
Подарок от PrimaNota.Ru, забирай!