PrimaNota.ru - самый крупный в мире бесплатный архив песенных текстов, аккордов, табулатур и нот


Insane Clown Posse - Halls Of Illusion - текст песни, таба, бас-таба, видео

Регистрация Запомнить меня
Войти через:  Facebook Google Twitter Vk Yandex Mail.ru

Insane Clown Posse - Halls Of Illusion - текст песни, таба, бас-таба, видео

Печатать
Просмотров: 80
Уроки эстрадного вокала в Санкт-Петербурге
Had to do this one the other one one ultimate guitar is not really... a good one.. 
and does not have the solo... that is by slash ^_^ MCL

Intro:
e|-----------------------------------------------------|
B|-----------------------------------------------------|
G|-18v~~17v~~16v~~15v~~~-------------------------------|
D|-----------------------------------------------------|
A|-----------------------------------------------------|
D|-----------------------------------------------------|


Verse 1 shaggy:
e|---------------------------------|--------------------|
B|---------------------------------|--------------------|
G|-18dely---17dely--16dely--15dely-|--------------------|
D|---------------------------------|--------------------|
A|---------------------------------|--------------------|
D|---------------------------------|--pick slide\-------|
		Repeat (2x)


chorus 1:
e|-----------------------------------------------------|
B|-----------------------------------------------------|
G|-----------------------------------------------------|
D|-0---6-5-3-------------------------------------------|
A|-0---6-5-3-------------------------------------------|
D|-0---6-5-3-------------------------------------------|


verse 2:
e|-----------------------------------------------------|
B|-----------------------------------------------------|
G|-18v~~17v~~16v~~15v~~~-------------------------------|
D|-----------------------------------------------------|
A|-----------------------------------------------------|
D|-----------------------------------------------------|

Verse 2 shaggy:
e|---------------------------------|--------------------|
B|---------------------------------|--------------------|
G|-18dely---17dely--16dely--15dely-|--------------------|
D|---------------------------------|--------------------|
A|---------------------------------|--------------------|
D|---------------------------------|--pick slide\-------|
		Repeat (3x)


chorus 2:
e|-----------------------------------------------------|
B|-----------------------------------------------------|
G|-----------------------------------------------------|
D|-0---6-5-3-------------------------------------------|
A|-0---6-5-3-------------------------------------------|
D|-0---6-5-3-------------------------------------------|




chorus 3:
e|-----------------------------------------------------|
B|-----------------------------------------------------|
G|-----------------------------------------------------|
D|-0---6-5-3-------------------------------------------|
A|-0---6-5-3-------------------------------------------|
D|-0---6-5-3-------------------------------------------|
		Repeat til the end


Guitar 2 solo
e|---16------------------------------------------------|
B|---19b(full)-----------------------------------------|
G|-----------------------------------------------------|
D|-----------------------------------------------------|
A|-----------------------------------------------------|
D|-----------------------------------------------------|
		Repeat(16x)

e|-----------------------------------------------------|
B|--21b(full)---20-21---------17------21b(full)--------|
G|----------------------18-20-----20-------------------|
D|-----------------------------------------------------|
A|-----------------------------------------------------|
D|-----------------------------------------------------|


e|-----------------------------------------------------|
B|-24(full)---------21---(21b)(full)---21--------------|
G|-----------------------------------------------18v~~~|
D|-----------------------------------------------------|
A|-----------------------------------------------------|
D|-----------------------------------------------------|
Добавлено: 23.09.2013
Другие материалы по этой песне:
  • Аккорды и текст

Страница создана 27.04.2012
http://primanota.ru/insane-clown-posse/halls-of-illusion-chords.htm
Привет, Гость.
Предлагаем пройти революционный курс по гитаре.
Подарок от PrimaNota.Ru, забирай!