PrimaNota.ru - самый крупный в мире бесплатный архив песенных текстов, аккордов, табулатур и нот


Insane Clown Posse - Basehead Attack - текст песни, таба, видео

Регистрация Запомнить меня
Войти через:  Facebook Google Twitter Vk Yandex Mail.ru

Insane Clown Posse - Basehead Attack - текст песни, таба, видео

Печатать
Просмотров: 91
Chorus 1:
  PM-------------------------------------------------------------|
e|-----------------------------------|---------------------------|
B|-----------------------------------|---------------------------|
G|-----------------------------------|---------------------------|
D|-0-0-0-0-1-------------------------|--0-0-0-0-1----------------|
A|-0-0-0-0-1--0-0-4-4-4-4-2-2-2-2----|--0-0-0-0-1----------------|
D|-0-0-0-0-1--0-0-4-4-4-4-2-2-2-2----|--0-0-0-0-1----------------|
           Repeat This Measure(7x)     At the end of frist Chorus


Chorus 2:
  PM---------------------------------|
e|-----------------------------------|
B|-----------------------------------|
G|-----------------------------------|
D|-0-0-0-0-1-------------------------|
A|-0-0-0-0-1--0-0-4-4-4-4-2-2-2-2----|
D|-0-0-0-0-1--0-0-4-4-4-4-2-2-2-2----|
                   Repeat Measure(8x)



Chorus 3:
  PM---------------------------------|
e|-----------------------------------|
B|-----------------------------------|
G|-----------------------------------|
D|-0-0-0-0-1-------------------------|
A|-0-0-0-0-1--0-0-4-4-4-4-2-2-2-2----|
D|-0-0-0-0-1--0-0-4-4-4-4-2-2-2-2----|
                   Repeat Measure(16x)

PM:Palm Mute

MCL homies. hope you like it
Добавлено: 18.10.2013
Другие материалы по этой песне:
  • Аккорды и текст

Страница создана 16.03.2012
http://primanota.ru/insane-clown-posse/basehead-attack-chords.htm
Привет, Гость.
Предлагаем пройти революционный курс по гитаре.
Подарок от PrimaNota.Ru, забирай!