PrimaNota.ru - самый крупный в мире бесплатный архив песенных текстов, аккордов, табулатур и нот


Innocent Bystanders - Popsicles - таба, видео

Регистрация Запомнить меня
Войти через:  Facebook Google Twitter Vk Yandex Mail.ru

Innocent Bystanders - Popsicles - таба, видео

Печатать
Просмотров: 104
----------------------------------------------------------------------------
                    Popsicles - Innocent Bystanders
----------------------------------------------------------------------------
I was on here and noticed that nobody had tabbed this awesome song, 
so I did. You'll hafta listen to the song for the tempos and changes, 
its not hard. I have faith in you. This is my first tab, so criticism will
be taken well. 


Tabbed by: zstr8
Email: zstr8@yahoo.com
Tuning: standard(Eadgbe)

Verses:   
e|3--2--0--0--2--3--2--0--0--0---------------------------------------------|
B|3--3--1--1--3--3--3--1--1--1---------------------------------------------|
G|0--2--2--0--2--0--2--2--0--0---------------------------------------------|
D|0--0--2--2--x--0--0--2--2--0---------------------------------------------|
A|2--x--0--3--x--2--x--0--3--2---------------------------------------------|
E|3--x--x--x--x--3--x--x--x--x---------------------------------------------|

Pre-Chorus:
e|-------------------------------------------------------------------------|
B|-------------------------------------------------------------------------|
G|------5~------7~---------------------------------------------------------|
D|--7~--5~--2~--7~---------------------------------------------------------|
A|--7~--3~--2~--5~---------------------------------------------------------|
E|--5~------0~-------------------------------------------------------------|

Chorus:
e|-------------------------------------------------------------------------|
B|-------------------------------------------------------------------------|
G|------77------55------77------55------77------55-------777---------------|
D|--55--77--77--55--55--77--77--55--55--77--77--55--2222-777---------------|
A|--55--55--77--33--55--55--77--33--55--55--77--33--2222-555---------------|
E|--33------55------33------55------33------55------0000-------------------|

Post Chorus/Outro
(lead)
e|-------------------------------------------------------------------------|
B|-12-10-10--------12-10-10-10-12------------------------------------------|
G|----------12-------------------12----------------------------------------|
D|-------------------------------------------------------------------------|
A|-------------------------------------------------------------------------|
E|-------------------------------------------------------------------------|
 (rhythm)x2
e|-------------------------------------------------------------------------|
B|-------------------------------------------------------------------------|
G|----77----55-------------------------------------------------------------|
D|-55-77-77-55-------------------------------------------------------------|
A|-55-55-77-33-------------------------------------------------------------|
E|-33----55----------------------------------------------------------------|

Bridge:
e|---------0~--------------------------------------------------------------|
B|-2~------1~--------------------------------------------------------------|
G|-2~------0~--------------------------------------------------------------|
D|-2~------2~--------------------------------------------------------------|
A|-0~------3~--------------------------------------------------------------|
E|-x-------x---------------------------------------------------------------|

Song Order:
V1
Pre-chorus
Chorus
Post Chorus
V2
Pre-Chorus
Post Chorus
Bridge
Chorus
Outro

Thanks.

Добавлено: 04.06.2012
Другие материалы по этой песне:
  • Аккорды и текст

Страница создана 04.06.2012
http://primanota.ru/innocent-bystanders/popsicles-chords.htm
Привет, Гость.
Предлагаем пройти революционный курс по гитаре.
Подарок от PrimaNota.Ru, забирай!