PrimaNota.ru - самый крупный в мире бесплатный архив песенных текстов, аккордов, табулатур и нот


Innocence Mission - Rain - аккорды и текст, видео

Регистрация Запомнить меня
Войти через:  Facebook Google Twitter Vk Yandex Mail.ru

Innocence Mission - Rain - аккорды и текст, видео

Печатать
Просмотров: 140
Rain
Innocence Mission
Rain (Setting out in the leaf boat)
Performed in Key of Ab
Capo on 8th Fret For The Chords Below

Dm                F
This dress that I made out of 
    C                   G
the curtains was on the line, dancing 
Dm                 F
around better than I 
             C              G
can.  Now we walk up to the top of the street.
F            G              G             C
Once letting go, rain sails us in a leafy boat
         G
down the street.
               G                F
And we will be there before we know.

   G  F  G
F  G  G  G
   
   
Dm                F
There go the lawn chairs.
               C               G
Some frogs are racing them, to catch up with me.
Dm                F
Gray buildings go by,
        C               G
violety sky lit up with trees in yellow.
F            G              G             C
Once letting go, rain sails us in a leafy boat
         G
down the street.
            G                   F
And we will be there before we know.

   G  F  G
F  G  F  G  G

F            G          F            G
Hey, is that you, going by, swimming by?
F            G           F              G
Hey, is that you, zig-zagging, whizzing by?
F                    G   G          
Sailing up, sailing by?

F            G              G             C
Once letting go, rain sails us in a leafy boat,
         G
down the street.
            G                   F
And we will be there before we know.

   G  F  G
F  G  F  G 

F  G  F  G
F  G  F  G 


Riff In Key of Ab:

|------------------------------------|
|----6-8-6-----8-9-8-----6-8-6---8-8-|
|--6-------6-6-------8-6-------6-----|
|------------------------------------|
|------------------------------------|
|------------------------------------|

Riff In Key of G# If Using The Capo:

|-----13-15-13-------15-16-15-------13-15-13----15-15-|
|--14----------14-14----------16-14----------14-------|
|-----------------------------------------------------|
|-----------------------------------------------------|
|-----------------------------------------------------|
|-----------------------------------------------------|

Riff In C:

|-----------------------------------------------------|
|-----10-12-10-------12-13-12-------10-12-10----12-12-|
|--10----------10-10----------12-10----------10-------|
|-----------------------------------------------------|
|-----------------------------------------------------|
|-----------------------------------------------------|
Добавлено: 29.05.2012
Другие материалы по этой песне:
  • Аккорды и текст

Страница создана 29.05.2012
http://primanota.ru/innocence-mission/rain-chords.htm
Привет, Гость.
Предлагаем пройти революционный курс по гитаре.
Подарок от PrimaNota.Ru, забирай!