PrimaNota.ru - самый крупный в мире бесплатный архив песенных текстов, аккордов, табулатур и нот


Innervoices - Baby Girl - таба, видео

Регистрация Запомнить меня
Войти через:  Facebook Google Twitter Vk Yandex Mail.ru

Innervoices - Baby Girl - таба, видео

Печатать
Просмотров: 180
Innvervoices - Baby Girl

Tabbed By: Terrence Zhao

Tuning: Standard

Verse and Chorus:


---------------0-------------------0-----------------------------------|
------------2-----0--------------0---0---------------------------------|
--------------------2------------------1-------------------------------|
--------2-------------2-------2----------2-----------------------------|
-----0-----------------------------------------------------------------|
---------------------------4-------------------------------------------|

-----------------0-------------------------0---------------------------|
--------------------0-------------------------0------------------------|
-------------2---------2-------------------------1---------------------|
---------------------------------------2------------2------------------|
--------4------------------4--------2----------------------------------|
-----2---------------------------0-------------------------------------|


Pre-chorus:

-------------0------------------------------------0--------------------|
----------3-----3--------------0--------0------2-----------------------|
-------2----------2---------1-----1--2------2--------------------------|
----0---------------4----2---------------------------------------------|
-----------------------------------------------------------------------|
-----------------------------------------------------------------------|


--------------0------------------0-------------------------------------|
-----------0-----------------2------0---2------------------------------|
----2---1--------1--------2----------------2---------------------------|
-----------------------4-----------------------------------------------|
-----------------------------------------------------------------------|
-----------------------------------------------------------------------|


------------------0----------------------0---------------0-------------|
--------------3------3----------------0---------------2----0-----------|
----------2--------------2-----------------------------------2---------|
----2--0-------------------------------------------2-----------2-------|
-----------------------------0--2--2---------2--0----------------------|
-----------------------------------------------------------------------|


---------------0-------------------------------------------------------|
------------3-----3----------------------------------------------------|
--------2------------2-------------------------------------------------|
-----0------------------0----------------------------------------------|
-----------------------------------------------------------------------|
-----------------------------------------------------------------------|
Добавлено: 13.03.2012
Вам также может быть интересно:
Другие материалы по этой песне:
  • Аккорды и текст

Страница создана 13.03.2012
http://primanota.ru/innervoices/baby-girl-chords.htm
Привет, Гость.
Предлагаем пройти революционный курс по гитаре.
Подарок от PrimaNota.Ru, забирай!