PrimaNota.ru - самый крупный в мире бесплатный архив песенных текстов, аккордов, табулатур и нот


Innerpartysystem - Dont Stop - аккорды и текст, таба, видео

Регистрация Запомнить меня
Войти через:  Facebook Google Twitter Vk Yandex Mail.ru

Innerpartysystem - Dont Stop - аккорды и текст, таба, видео

Печатать
Просмотров: 323
Dont Stop
Innerpartysystem
ARTIST - INNERPARTYSYSTEM
SONG - DON'T STOP
TAB CREATOR- JAY-T
STANDARD TUNING: EADGBe
KEY: F Natural Minor: F-G-Ab-Bb-C-C#-Eb-F
It's an awsome tune, by an awsome band.
Hope you all enjoy it, any comments/corrections welcome.

Jay-T  "jay@6ftsomething.co.uk"


Verse 1: The road I walk is paved with gold...

   C
e---------|
B---------| 
G---------| 
D--10-----| 
A--10-----| 
E--8---x32| [x2]



Link 

   C   C     C    C  C    C  C    C  C
e-----------------------------------------|
B-----------------------------------------|
G-----------------------------------------|
D--10--10----10---10-10---10-10---10-10---|
A--10--10----10---10-10---10-10---10-10---|
E--8---8-----8----8--8----8--8----8--8----|



Verse 2: The selfish blood flows through my veins...

   C   C    F   Eb
e-------------------|
B-------------------|
G-----------10--8---|
D--10--10---10--8---|
A--10--10---8---6---|
E--8---8------------| [x2]



Bridge: I got, you want. It's just, don't stop...

   C   C   Ab  Bb 
e------------------|
B------------------|
G------------------|
D--10--10--6---8---|
A--10--10--6---8---|
E--8---8---4---6---| [x2]



Chorus: This is entertainment...

   F   Ab  C   C#                            C
e---------------------|                   e-------|
B---------------------|                   B-------|
G---------------------|                   G-------|
D--3---6---10---11----|                   D--10---|
A--3---6---10---11----|                   A--10---|
E--1---4---8----9-----| [x2]   END ON C:  E--8----|

Repeat for verse 3 & 4 and then the bridge and chourus...



Middle 8: (synth part) -  ....

 Dear future| I bought you|I own the right...          ...and | I...
e------------------------------------|              e---------------|       
B------------------------------------|              B---------------|       
G------------------------------------|              G---------------|
D------------------------------------|              D---------------|
A--10-8-------10-11-10----10-8-3-6---|              A--6/8---8/10---|
E-------11---------------------------| [x4] Then    E---------------|



Bridge: I got, you want. It's just, don't stop...

   C   C   Ab  Bb 
e------------------|
B------------------|
G------------------|
D--10--10--6---8---|
A--10--10--6---8---|
E--8---8---4---6---| [x2]



Chorus: This is entertainment...

   F   Ab  C   C#                          
e---------------------|                 
B---------------------|                 
G---------------------|                
D--3---6---10---11----|               
A--3---6---10---11----|                   
E--1---4---8----9-----| [x2]



Ending: Begging me for more

   F   Ab  C   C#                          
e---------------------|                 
B---------------------|                 
G---------------------|                
D--3---6---10---11----|               
A--3---6---10---11----|                   
E--1---4---8----9-----| [x1]


On the last: "Begging me for more"

   C
e-------|
B-------|
G-------| 
D--10---|
A--10---|
E--8----| [x8]



This should be pretty spot-on but if not, any and all comments or corrections welcome:

Cheers, Jay-T
Добавлено: 24.07.2012
Другие материалы по этой песне:
  • Аккорды и текст

Страница создана 04.03.2012
http://primanota.ru/innerpartysystem/dont-stop-chords.htm
Привет, Гость.
Предлагаем пройти революционный курс по гитаре.
Подарок от PrimaNota.Ru, забирай!