PrimaNota.ru - самый крупный в мире бесплатный архив песенных текстов, аккордов, табулатур и нот


Inme - Wont Let Go - таба, видео

Регистрация Запомнить меня
Войти через:  Facebook Google Twitter Vk Yandex Mail.ru

Inme - Wont Let Go - таба, видео

Печатать
Просмотров: 96
I Transposed This song by ear i was working on it a while ago but
then went on to something else its based on the demo version so
it might not be correct but i tryd my best, ha.
Have fun lol.

....InMe - Wont Let Go....

Tabbed by: BrokenWhisper

Tuning: Standard E


Intro
       *****      *****
|---------------------------------------|
|---------------------------------------|
|--55-55555---77-77777------------------|
|--55-55555---77-77777------------------|
|--33-33333---55-55555------------------|
|---------------------------------------|
                         * * * * *
|--------------------------------------|
|--------------------------------------|
|--55-77-1111--1312-1111-1111111111-77-|
|--55-77-1111--1312-1111-1111111111-77-|
|--33-55-9-9---1110-9-9--9-9-9-9-9--55-|
|--------------------------------------|

|--------------------------------------|
|--------------------------------------|
|--9-9-9-9-9-9-9-9--1111111111111111---|
|--1010101010101010-1212121212121212---|
|--1010101010101010-1212121212121212---|
|--8-8-8-8-8-8-8-8--1010101010101010---|

gtr 2

Starts on the first 11
                    11
                    9
|--------------------------------------|
|--------------------------------------|x 1
|--11-11--12-11--------9-9--11-11------|
|--------------------------------------|
|--------------------------------------|
|--------------------------------------|

|--------------------------------------|
|--15-15-------------------------------|x 2
|--------12-12--14-14------------------|
|---------------------12-12------------|
|--------------------------------------|
|--------------------------------------|


Verse

|--------------------------------------|
|--------------------------------------|
|--------------------------------------|x2
|-------2------2------2----------------|
|---2-----2------2------2---2----------|
|--0--0------0------0-----0------------|

|--------------------------------------|
|--------------------------------------|
|--------------------------------------|
|-------7------7------7----------------|
|---7-----7------7------7---2----------|
|--0--0------0------0-----0------------|

|--------------------------------------|
|--------------------------------------|
|--------------------------------------|x2
|-------2------2------2----------------|
|---2-----2------2------2---2----------|
|--0--0------0------0-----0------------|

|--------------------------------------|
|--------------------------------------|
|--------------------------------------|
|-------2------2------2----------------|
|---2-----2------2------2---2----------|
|--1--1------1------1-----1------------|

|--------------------------------------|
|--------------------------------------|
|--------------------------------------|
|-------2------2------2----------------|
|---2-----2------2------2---2----------|
|--0--0------0------0-----0------------|

|--------------------------------------|
|--------------------------------------|
|--------------------------------------|
|-------2------2------2----------------|
|---2-----2------2------2---2----------|
|--1--1------1------1-----1------------|

|--------------------------------------|
|--------------------------------------|
|--------------------------------------|
|-------2------2------2----------------|
|---2-----2------2------2---2----------|
|--0--0------0------0-----0------------|

Bridge

|--------------------------------------|
|--------------------------------------|
|---10/12-10-9-------------------------|
|--------------------------------------|
|--------------------------------------|
|--------------------------------------|

Chorus x2

|--------------------------------------|
|--------------------------------------|
|--------------------------------------|
|---9999999999999-5555555555555--------|
|---9999999999999-5555555555555--------|
|---7777777777777-3333333333333--------|

|--------------------------------------|
|--------------------------------------|
|--------------------------------------|
|---7-7-7-7-7-7-7-7--------------------|
|---7-7-7-7-7-7-7-7--------------------|
|---5-5-5-5-5-5-5-5--------------------|
   **   **   **    **    **
|--------------------------------------|
|-----7----5---------------------------|
|----------------7----6-----6/7--------|
|--------------------------------------|
|--00---00---00----00----00------------|
|--00---00---00----00----00------------|

verse


|--------------------------------------|
|--------------------------------------|
|--------------------------------------|x2
|-------2------2------2----------------|
|---2-----2------2------2---2----------|
|--0--0------0------0-----0------------|

|--------------------------------------|
|--------------------------------------|
|--------------------------------------|
|-------7------7------7----------------|
|---7-----7------7------7---2----------|
|--0--0------0------0-----0------------|

|--------------------------------------|
|--------------------------------------|
|--------------------------------------|x2
|-------2------2------2----------------|
|---2-----2------2------2---2----------|
|--0--0------0------0-----0------------|

|--------------------------------------|
|--------------------------------------|
|--------------------------------------|
|-------2------2------2----------------|
|---2-----2------2------2---2----------|
|--1--1------1------1-----1------------|

|--------------------------------------|
|--------------------------------------|
|--------------------------------------|
|-------2------2------2----------------|
|---2-----2------2------2---2----------|
|--0--0------0------0-----0------------|

|--------------------------------------|
|--------------------------------------|
|--------------------------------------|
|-------2------2------2----------------|
|---2-----2------2------2---2----------|
|--1--1------1------1-----1------------|

|--------------------------------------|
|--------------------------------------|
|--------------------------------------|
|-------2------2------2----------------|
|---2-----2------2------2---2----------|
|--0--0------0------0-----0------------|


Silent Bridge For Gtr

Chorus x2

|--------------------------------------|
|--------------------------------------|
|--------------------------------------|
|---9999999999999-5555555555555--------|
|---9999999999999-5555555555555--------|
|---7777777777777-3333333333333--------|

|--------------------------------------|
|--------------------------------------|
|--------------------------------------|
|---7-7-7-7-7-7-7-7--------------------|
|---7-7-7-7-7-7-7-7--------------------|
|---5-5-5-5-5-5-5-5--------------------|
   **   **   **    **    **
|--------------------------------------|
|-----7----5---------------------------|
|----------------7----6-----6/7--------|
|--------------------------------------|
|--00---00---00----00----00------------|
|--00---00---00----00----00------------|

Intro
       *****      *****
|---------------------------------------|
|---------------------------------------|
|--55-55555---77-77777------------------|
|--55-55555---77-77777------------------|
|--33-33333---55-55555------------------|
|---------------------------------------|
                         * * * * *
|--------------------------------------|
|--------------------------------------|
|--55-77-1111--1312-1111-1111111111-77-|
|--55-77-1111--1312-1111-1111111111-77-|
|--33-55-9-9---1110-9-9--9-9-9-9-9--55-|
|--------------------------------------|

|--------------------------------------|
|--------------------------------------|
|--9-9-9-9-9-9-9-9--1111111111111111---|
|--1010101010101010-1212121212121212---|
|--1010101010101010-1212121212121212---|
|--8-8-8-8-8-8-8-8--1010101010101010---|

gtr 2

Starts on the first 11
                    11
                    9
|--------------------------------------|
|--------------------------------------|x 1
|--11-11--12-11--------9-9--11-11------|
|--------------------------------------|
|--------------------------------------|
|--------------------------------------|

|--------------------------------------|
|--15-15-------------------------------|x 2
|--------12-12--14-14------------------|
|---------------------12-12------------|
|--------------------------------------|
|--------------------------------------|

Brake Down

Here Are The Chords Or So i can work out You
Should Be Able To Figure Out The Rythm

|--------------------------------------|
|--------------------------------------|
|--13---4---11-----13---4---11---------|
|--14---5---12-----14---5---12---------|
|--14---5---12-----14---5---12---------|
|--12---3---10-----12---3---10---------|

Gtr 2
|--------------------------------------|
|--15-15-------------------------------|x 2
|--------12-12--14-14------------------|
|---------------------12-12------------|
|--------------------------------------|
|--------------------------------------|

Heavy Brake Down

|----------------------------------------|
|----------------------------------------|
|----------------------------------------|
|--slide-down-to-0-with-harmonics-from-5-|
|--------------------------------------5-|
|--------------------------------------5-|

|--------------------------------------|
|--------------------------------------|
|--13---4---11-----13---4---11---------|
|--14---5---12-----14---5---12---------|
|--14---5---12-----14---5---12---------|
|--12---3---10-----12---3---10---------|

Gtr 2
|--------------------------------------|
|--15-15-------------------------------|
|--------12-12--14-14------------------|
|---------------------12-12------------|
|--------------------------------------|
|--------------------------------------|


|--------------------------------------|
|--------------------------------------|
|--------------------------------------|
|---7-7-7-7-7-7-7-7-7-7-7-7-7-7-7-7----|
|---7-7-7-7-7-7-7-7-7-7-7-7-7-7-7-7----|
|---5-5-5-5-5-5-5-5-5-5-5-5-5-5-5-5----|

|--------------------------------------|
|--------------------------------------|
|--------------------------------------|
|---17------------------5--------------|
|---17slow-slide-down-to5--------------|
|---17------------------5--------------|


Chorus x3

|--------------------------------------|
|--------------------------------------|
|--------------------------------------|
|---9999999999999-5555555555555--------|
|---9999999999999-5555555555555--------|
|---7777777777777-3333333333333--------|

|--------------------------------------|
|--------------------------------------|
|--------------------------------------|
|---7-7-7-7-7-7-7-7--------------------|
|---7-7-7-7-7-7-7-7--------------------|
|---5-5-5-5-5-5-5-5--------------------|
   **   **   **    **    **
|--------------------------------------|
|-----7----5---------------------------|
|----------------7----6-----6/7--------|
|--------------------------------------|
|--00---00---00----00----00------------|
|--00---00---00----00----00------------|

Outro

|--------------------------------------|
|--------------------------------------|
|--------------------------------------|
|---------2----------2-----------------|
|-----2---------2----------------------|
|---0---0-----0----0-------------------|

|--------------------------------------|
|--------------------------------------|
|--------------------------------------|
|---------0-----0-----0----------------|
|-----0-----0-----0-----0---0----------|
|---0---0-----0-----0-----0------------|

|--------------------------------------|
|--------------------------------------|
|--------------------------------------|
|---------2----------2-----------------|
|-----2---------2----------------------|
|---0---0-----0----0-------------------|
Добавлено: 05.06.2012
Другие материалы по этой песне:
  • Аккорды и текст

Страница создана 05.06.2012
http://primanota.ru/inme/wont-let-go-chords.htm
Привет, Гость.
Предлагаем пройти революционный курс по гитаре.
Подарок от PrimaNota.Ru, забирай!