PrimaNota.ru - самый крупный в мире бесплатный архив песенных текстов, аккордов, табулатур и нот


Inme - The Art Of Moderation - таба, видео

Регистрация Запомнить меня
Войти через:  Facebook Google Twitter Vk Yandex Mail.ru

Inme - The Art Of Moderation - таба, видео

Печатать
Просмотров: 84
Band: InMe
Song: The Art of Moderation
Album: Herald Moth
Tuning: Drop D

(Thanks to Houchen and SilliChilli from the InME forum for input and changes)


Intro
e|----------------------------------------------------------------------------------------|
b|----------------------------------------------------------------------------------------|
g|----------------------------------------------------------------------------------------|
d|-0-12h15-0-12h15-0-12h15-0-11h14-0-11h14-0-14h17-0-14h17-0-14h17-0-15h18-0-15h18--------|
a|----------------------------------------------------------------------------------------|
D|----------------------------------------------------------------------------------------|

e|----------------------------------------------------------------------------------------|
b|----------------------------------------------------------------------------------------|
g|----------------------------------------------------------------------------------------|
d|-0-12h15-0-12h15-0-12h15-0-11h14-0-11h14-0-14h17-0-14h17-0-14h17-0-15h18-0-15h18--------|
a|----------------------------------------------------------------------------------------|
D|----------------------------------------------------------------------------------------|

e|----------------------------------------------------------------------------------------|
b|----------------------------------------------------------------------------------------|
g|----------------------------------------------------------------------------------------|
d|-0-15h19-0-15h19-0-15h19-0-14h18-0-14h18-0-17h20-0-17h20-0-17h20-0-16h19-0-16h19--------|
a|----------------------------------------------------------------------------------------|
D|----------------------------------------------------------------------------------------|

e|----------------------------------------------------------------------------------------|
b|----------------------------------------------------------------------------------------|
g|----------------------------------------------------------------------------------------|
d|-0-15h19-0-15h19-0-15h19-0-14h18-0-14h18-0-17h20-0-17h20-0-17h20-0-16h19-0-16h19--------|
a|----------------------------------------------------------------------------------------|
D|----------------------------------------------------------------------------------------|

e|----------------------------------------------------------------------|
b|----------------------------------------------------------------------|
g|----------------------------------------------------------------------|
d|----------------------------------------------------------------------|
a|-0-0-0-0-7-6--0-0-0-0-5:-3--------------------------------------------|
D|-0-0-0-0-7-6--0-0-0-0-5:-3--0-1-3-0-1-3-0-1-3-------------------------|
   . . . .      . . . .
e|----------------------------------------------------------------------|
b|-------------------------------13--10-10------------------------------|
g|-------------------------------10--7--7-------------------------------|
d|-------------------------3/5------------------------------------------|
a|-0-0-0-0-9-8---0-0-0-0-3----------------------------------------------|
D|-0-0-0-0-9-8---0-0-0-0-3----------------------------------------------|
   . . . .       . . . . 
x3

e|----------------------------------------------------------------------|
b|----------------------------------------------------------------------|
g|----------------------------------------------------------------------|
d|--------------------6--3--2--0----------------------------------------|
a|--------------4--3--------------1-------------------------------------|
D|--0--1--4--3----------------------------------------------------------|
Trem picked

Verse
e|-------------------------------------------------------------------------|
b|-------------------------------------------------------------------------|
g|-------------------------------------------------------------------------|
d|--22-22-22-22-------11-11-11---------<5>---55-55-55-55--77-77-77---------|
a|--22-22-22-22-------11-11-11-----<5>-------55-55-55-55--77-77-77---------|
D|--22-22-22-22--4bb--11-11-11--<5>----------55-55-55-55--77-77-77---------|
x2

Chorus
e|-----------------------------------------------------------------------|
b|-----------------------------------------------------------------------|
g|-----------------------------------------------------------------------|
d|--7--9--5--3/5-3h2-2----7--9--5--------------------------------7--9--5-|
a|--5--7--5------------3--5--7--5--0-3-0-7-0-5-0-8-0-7-0-5-5h7p--5--7--5-|
D|--------5---------------------5--------------------------------------5-|

Pre Verse
e|--------------------------------------------------------------|
g|--------------------------------------------------------------|
b|--------------------------------------------------------------|
d|------------------------6--3--2--0----------------------------|
a|-----------------4--3---------------1-------------------------|
D|--0--1--4--3--------------------------------------------------|

e|---------------------------------------------------------------|
B|------------------------4--1--0--------------------------------|
G|----------------------------------2----------------------------|
D|-----------------4--3----------------1--2----------------------|
A|--0--1--4--3---------------------------------------------------|
D|---------------------------------------------------------------|
Trem picked

Verse
e|------------------------------------------------------------------------|
b|------------------------------------------------------------------------|
g|------------------------------------------------------------------------|
d|-22-22-22-22-------11-11-11--------<5>----55-55-55-55--77-77-77---------|
a|-22-22-22-22-------11-11-11-----<5>-------55-55-55-55--77-77-77---------|
D|-22-22-22-22--4bb--11-11-11--<5>----------55-55-55-55--77-77-77---------|
x2

Chorus
e|-----------------------------------------------------------------------|
b|-----------------------------------------------------------------------|
g|-----------------------------------------------------------------------|
d|--7--9--5--3/5-3h2-2----7--9--5--------------------------------7--9--5-|
a|--5--7--5------------3--5--7--5--0-3-0-7-0-5-0-8-0-7-0-5-5h7p--5--7--5-|
D|--------5---------------------5--------------------------------------5-|

Breakdown
e|--------------------------------------------------------------|
g|--------------------------------------------------------------|
b|--------------------------------------------------------------|
d|------------------------6--3--2--0----------------------------|
a|-----------------4--3---------------1-------------------------|
D|--0--1--4--3--------------------------------------------------|

e|---------------------------------------------------------------|
B|------------------------4--1--0--------------------------------|
G|----------------------------------2----------------------------|
D|-----------------4--3----------------1--2----------------------|
A|--0--1--4--3---------------------------------------------------|
D|---------------------------------------------------------------|

e|--------------------------------------------------------------|
g|--------------------------------------------------------------|
b|--------------------------------------------------------------|
d|------------------------6--3--2--0----------------------------|
a|-----------------4--3---------------1-------------------------|
D|--0--1--4--3--------------------------------------------------|
P.M .  .  .  .     .  .   .  .  .  .  .

e|---------------------------------------------------------------|
B|------------------------4--1--0--------------------------------|
G|----------------------------------2----------------------------|
D|-----------------4--3----------------1--2----------------------|
A|--0--1--4--3---------------------------------------------------|
D|---------------------------------------------------------------|
P.M .  .  .  .     .  .   .  .  .   .  .  .
Trem picked

Solo
e|-10h13-10h13----10h13-10h13----10h13-10h13----10h13 10h13-----------------|
b|-------------12-------------12-------------12-------------12--------------|
g|--------------------------------------------------------------------------|
d|--------------------------------------------------------------------------|
a|--------------------------------------------------------------------------|
D|--------------------------------------------------------------------------|


e|-12h15-12h15----12h15-12h15----12h15-12h15----12h15 12h15-----------------|
b|-------------13-------------13-------------13-------------13--------------|
g|--------------------------------------------------------------------------|
d|--------------------------------------------------------------------------|
a|--------------------------------------------------------------------------|
D|--------------------------------------------------------------------------|



e|-13h117-13h17----13h17-13h17----13h17-13h17----13h17 13h17----------------|
b|-------------15--------------15-------------15-------------15-------------|
g|--------------------------------------------------------------------------|
d|--------------------------------------------------------------------------|
a|--------------------------------------------------------------------------|
D|--------------------------------------------------------------------------|

e|-15h18-15h18----15h18-15h18----15h18-15h18----15h18 15h18---------------------------------|
b|-------------17-------------17-------------17-------------17--20-20-20-20-19-19-19-19-----|
g|------------------------------------------------------------------------------------------|
d|------------------------------------------------------------------------------------------|
a|------------------------------------------------------------------------------------------|
D|------------------------------------------------------------------------------------------|

e|-14-15-14-15-14-15-17-15-17-15-17-15-17b-16-------------------------------|
b|--------------------------------------------------------------------------|
g|--------------------------------------------------------------------------|
d|--------------------------------------------------------------------------|
a|--------------------------------------------------------------------------|
D|--------------------------------------------------------------------------|


e|-15-17-15-17-15-17-17-18-17-18-17-18-19b-18----17-17-15/------------------|
b|--------------------------------------------------------------------------|
g|--------------------------------------------------------------------------|
d|--------------------------------------------------------------------------|
a|--------------------------------------------------------------------------|
D|--------------------------------------------------------------------------|

e|-14h17p-14h17p-14h17p-14h17p-15h18p-15h18p-15h18p-15h18p------------------|
b|--------------------------------------------------------------------------|
g|--------------------------------------------------------------------------|
d|--------------------------------------------------------------------------|
a|--------------------------------------------------------------------------|
D|--------------------------------------------------------------------------|


e|-17h20p-17h20p-17h20p-17h20p----------------------------------------------|
b|--------------------------------------------------------------------------|
g|--------------------------------------------------------------------------|
d|--------------------------------------------------------------------------|
a|--------------------------------------------------------------------------|
D|--------------------------------------------------------------------------|

e|-18b-17-17b-15-15b-13-13b-12-10-------------------------------------------|
b|------------------------------------------10-12-13-15-10-12-13-15---------|
g|--------------------------------------------------------------------------|
d|--------------------------------------------------------------------------|
a|--------------------------------------------------------------------------|
D|--------------------------------------------------------------------------|

(Quiet Build up to tapping)
e|--------------------------------------------------------------------------|
b|--------------------------------------------------------------------------|
g|-13-13-13-13-10--15-15-15-15-12--17-17-17-17-14--19-19-19-19-16-----------|
d|--------------------------------------------------------------------------|
a|--------------------------------------------------------------------------|
D|--------------------------------------------------------------------------|


    T       T         T        T        T
e|--------------------------------------------------------------------------|
b|-15-10h13--15-10h13--15-10h13--15-10h13--15-10h13-------------------------|
g|--------------------------------------------------------------------------|
d|--------------------------------------------------------------------------|
a|--------------------------------------------------------------------------|
D|--------------------------------------------------------------------------|
 
    T        T        T        T       T
e|--------------------------------------------------------------------------|
b|-13-9h12--13-9h12--13-9h12--13-9h12--13-9h12------------------------------|
g|--------------------------------------------------------------------------|
d|--------------------------------------------------------------------------|
a|--------------------------------------------------------------------------|
D|--------------------------------------------------------------------------|

    T       T         T        T        T
e|--------------------------------------------------------------------------|
b|-15-10h13--15-10h13--15-10h13--15-10h13--15-10h13-------------------------|
g|--------------------------------------------------------------------------|
d|--------------------------------------------------------------------------|
a|--------------------------------------------------------------------------|
D|--------------------------------------------------------------------------|

    T         T         T         T        T
e|--------------------------------------------------------------------------|
b|-17-12h15--17-12h15--17-12h15--17-12h15--17-12h15-------------------------|
g|--------------------------------------------------------------------------|
d|--------------------------------------------------------------------------|
a|--------------------------------------------------------------------------|
D|--------------------------------------------------------------------------|
x2

    T         T         T         T         T         T 
e|-17-10h13--17-10h13--17-10h13--17-10h13--17-10h13--17-10h13---------------|
b|--------------------------------------------------------------------------|
g|--------------------------------------------------------------------------|
d|--------------------------------------------------------------------------|
a|--------------------------------------------------------------------------|
D|--------------------------------------------------------------------------|

    T         T         T         T         T          T
e|-18-10h13--18-10h13--18-10h13--18-10h13---18-10h13---18-10h13-------------|
b|--------------------------------------------------------------------------|
g|--------------------------------------------------------------------------|
d|--------------------------------------------------------------------------|
a|--------------------------------------------------------------------------|
D|--------------------------------------------------------------------------|

    T        T         T          T         T         T
e|-15-10h13--15-10h13--15-10h13--15-10h13--15-10h13--15-10h13---------------|
b|--------------------------------------------------------------------------|
g|--------------------------------------------------------------------------|
d|--------------------------------------------------------------------------|
a|--------------------------------------------------------------------------|
D|--------------------------------------------------------------------------|

    T         T         T         T         T         T
e|-18-10h13--18-10h13--18-10h13--18-10h13--18-10h13--18-10h13---------------|
b|--------------------------------------------------------------------------|
g|--------------------------------------------------------------------------|
d|--------------------------------------------------------------------------|
a|--------------------------------------------------------------------------|
D|--------------------------------------------------------------------------|
x2

Rhythm Behind Solo
e|------------------------------------------------------------------------|
b|------------------------------------------------------------------------|
g|------------------------------------------------------------------------|
d|--22--11-------<5>-55--77---------------------------------------------------|
a|--22--11----<5>----55--77---------------------------------------------------|
D|--22--11-<5>-------55--77---------------------------------------------------|
(Same pattern and timing as verse. *Only play harmonics up until the tapping part!*)

Last Chorus Chords
e|------------------------------------------------------------|
b|------------------------------------------------------------|
g|------------------------------------------------------------|
d|--2--7--5---------------------------------------------------|
a|--2--7--5---------------------------------------------------|
D|--2--7--5---------------------------------------------------|

Outro
e|----------------------------------------------------------------------|
b|----------------------------------------------------------------------|
g|----------------------------------------------------------------------|
d|----------------------------------------------------------------------|
a|-0-0-0-0-7-6--0-0-0-0-5:-3--------------------------------------------|
D|-0-0-0-0-7-6--0-0-0-0-5:-3--0-1-3-0-1-3-0-1-3-------------------------|
   . . . .      . . . .
e|----------------------------------------------------------------------|
b|-------------------------------13--10-10------------------------------|
g|-------------------------------10--7--7-------------------------------|
d|-------------------------3/5------------------------------------------|
a|-0-0-0-0-9-8---0-0-0-0-3----------------------------------------------|
D|-0-0-0-0-9-8---0-0-0-0-3----------------------------------------------|
   . . . .       . . . .
x2

Key
h   - hammer on
p   - pull off
:   - dont let note ring
T   - tapping
 - natural harmonic
.   - Palm mute
Добавлено: 29.04.2012
Другие материалы по этой песне:

Страница создана 18.04.2012
http://primanota.ru/inme/the-art-of-moderation-chords.htm
Привет, Гость.
Предлагаем пройти революционный курс по гитаре.
Подарок от PrimaNota.Ru, забирай!