PrimaNota.ru - самый крупный в мире бесплатный архив песенных текстов, аккордов, табулатур и нот


Inme - Soldier - текст песни, таба, бас-таба, видео

Регистрация Запомнить меня
Войти через:  Facebook Google Twitter Vk Yandex Mail.ru

Inme - Soldier - текст песни, таба, бас-таба, видео

Печатать
Просмотров: 181
It may not be exactly spot on but no one else has posted it so here we go

Intro
E|--12--12--12--------------------------|
B|--10--10--10--------------------------|
G|--x---x---x----------6-6-7-7-7-9-9-11-|
D|999-999-999-9/1111-0-x-x-x-x-x-x-x-x--|   thanks 2 Alredyded 4 pointin
A|999-999-999-9/1111-0-4-4/5-5-5/7-7/9--|   out a lil mistake i made when
D|999-999-999-9/1111-0------------------|   tabbin (luk in comments)

E|--------------------------------------------|
B|--------------------------------------------|
G|--------------------------------------------|
D|5-5-4h5p4--5-5-4h5p4--557-557-557-7-9/10-10-|
A|5--------5-5--------5-555-555-555-5-9/10-10-|
D|5----------5----------555-555-555-5-9/10-10-|
pm----------------------**--**--**------------|

E|--12--12--12--------------------------|
B|--10--10--10--------------------------|
G|--x---x---x----------6-6-7-7-7-9-9-11-|
D|999-999-999-9/1111-0-x-x-x-x-x-x-x-x--|
A|999-999-999-9/1111-0-4-4/5-5-5/7-7/9--|
D|999-999-999-9/1111-0------------------|

E|------------------------------------|
B|--3-2h3p2----5-3h5p3----7--5--7b7b7-|
G|---------2----------2---------------|
D|5----------5----------55-55-55------|
A|5----------5----------55-55-55------|
D|5----------5----------55-55-55------|
pm----------------------**-**-**------|

Verse 1
E|1414-14-14-14-14-12121212-55-5-5-5-5-55-5-55-5-5-5-5-------|
B|1515-15-15-15-15-14141414-55-5-5-5-5-5555-55-5-5-5-5-7b7b7-|
G|1414-14-14-14-14-14141414-77-7-7-7-7-6666-77-7-7-7-7-------|
D|-----------------------------------------------------------|
A|-----------------------------------------------------------|
D|-----------------------------------------------------------|

E|1414-14-14-14-14-12121212-55-5-5-5-5-55-5-55-5-5-5-5-|
B|1515-15-15-15-15-14141414-55-5-5-5-5-5555-55-5-5-5-5-|
G|1414-14-14-14-14-14141414-77-7-7-7-7-6666-77-7-7-7-7-|
D|-----------------------------------------------------|
A|-----------------------------------------------------|
D|-----------------------------------------------------|

Chorus
E|--12--12--12--------------------------|
B|--10--10--10--------------------------|
G|--x---x---x----------6-6-7-7-7-9-9-11-|
D|999-999-999-9/1111-0-x-x-x-x-x-x-x-x--|
A|999-999-999-9/1111-0-4-4/5-5-5/7-7/9--|
D|999-999-999-9/1111-0------------------|

E|--------------------------------------------|
B|--------------------------------------------|
G|--------------------------------------------|
D|5-5-4h5p4--5-5-4h5p4--557-557-557-7-9/10-10-|
A|5--------5-5--------5-555-555-555-5-9/10-10-|
D|5----------5----------555-555-555-5-9/10-10-|
pm----------------------**--**--**------------|

E|--12--12--12--------------------------|
B|--10--10--10--------------------------|
G|--x---x---x----------6-6-7-7-7-9-9-11-|
D|999-999-999-9/1111-0-x-x-x-x-x-x-x-x--|
A|999-999-999-9/1111-0-4-4/5-5-5/7-7/9--|
D|999-999-999-9/1111-0------------------|

E|------------------------------------|
B|--3-2h3p2----5-3h5p3----7--5--7b7b7-|
G|---------2----------2---------------|
D|5----------5----------55-55-55------|
A|5----------5----------55-55-55------|
D|5----------5----------55-55-55------|
pm----------------------**-**-**------|

Verse 2
E|1414-14-14-14-14-12121212-55-5-5-5-5-55-5-55-5-5-5-5-------|
B|1515-15-15-15-15-14141414-55-5-5-5-5-5555-55-5-5-5-5-7b7b7-|
G|1414-14-14-14-14-14141414-77-7-7-7-7-6666-77-7-7-7-7-------|
D|-----------------------------------------------------------|
A|-----------------------------------------------------------|
D|-----------------------------------------------------------|

E|-------------------------------------------------------------|
B|------14-------------12-------------15-------------17--------|
G|--14-----14--14--14-----14--14--14-----14--14--14-----14--14-|
D|12--12-----12--12--12-----12--12--12-----12--12--12-----12---|
A|-------------------------------------------------------------|
D|-------------------------------------------------------------|

E|------------------------------------------------------------|
B|------14-------------12-------------15-------------17^^^^---|
G|--14-----14--14--14-----14--14--14-----14--14--14-----------|
D|12--12-----12--12--12-----12--12--12-----12--12--12---------|
A|------------------------------------------------------------|
D|------------------------------------------------------------|

Chorus
E|--12--12--12--------------------------|
B|--10--10--10--------------------------|
G|--x---x---x----------6-6-7-7-7-9-9-11-|
D|999-999-999-9/1111-0-x-x-x-x-x-x-x-x--|
A|999-999-999-9/1111-0-4-4/5-5-5/7-7/9--|
D|999-999-999-9/1111-0------------------|

E|--------------------------------------------|
B|--------------------------------------------|
G|--------------------------------------------|
D|5-5-4h5p4--5-5-4h5p4--557-557-557-7-9/10-10-|
A|5--------5-5--------5-555-555-555-5-9/10-10-|
D|5----------5----------555-555-555-5-9/10-10-|
pm----------------------**--**--**------------|

E|--12--12--12--------------------------|
B|--10--10--10--------------------------|
G|--x---x---x----------6-6-7-7-7-9-9-11-|
D|999-999-999-9/1111-0-x-x-x-x-x-x-x-x--|
A|999-999-999-9/1111-0-4-4/5-5-5/7-7/9--|
D|999-999-999-9/1111-0------------------|

E|------------------------------------|
B|--3-2h3p2----5-3h5p3----7--5--7b7b7-|
G|---------2----------2---------------|
D|5----------5----------55-55-55------|
A|5----------5----------55-55-55------|
D|5----------5----------55-55-55------|
pm----------------------**-**-**------|

Interlude
E|------------------------------------------------------------------------|
B|------------------------------------------------------------------------|
G|------------------------------------------------------------------------|
D|----------0-7-0---0-7-0---0-7-0---0-7-0---0-7-0---0-7-0---0-7-0---0-7-0-|
A|00224457----------------------------------------------------------------|
D|002244579-------5-------7-------7-------9-------5-------7-------7-------|
pm********----------------------------------------------------------------|

E|----------------------------------------------------------------|
B|----------------------------------------------------------------|
G|----------------------------------------------------------------|
D|--0-7-0---0-7-0---0-7-0---0-7-0---0-7-0---0-7-0---0-7-0---0-7-0-|
A|----------------------------------------------------------------|
D|9-------5-------7-------7-------9-------5-------7-------7-------|

E|----------------------------------------------------------------|
B|----------------------------------------------------------------|
G|----------------------------------------------------------------|
D|9-0-7-0-5-0-7-0-7-0-7-0-7-0-7-0-9-0-7-0-5-0-7-0-7-0-7-0-7-0-7-0-|
A|9-------5-------7-------7-------9-------5-------7-------7-------|
D|9-------5-------7-------7-------9-------5-------7-------7-------|

E|-----------------------------------------------------------------|
B|-----------------------------------------------------------------|
G|-----------------------------------------------------------------|
D|9-0-7-0-5-0-7-0-7-0-7-0-7-0-7-0-9-0-7-0-5-0-7-0-7777777777777777-|
A|9-------5-------7-------7-------9-------5-------7777777777777777-|
D|9-------5-------7-------7-------9-------5-------7777777777777777-|
pm------------------------------------------------************-----|

Chorus
E|--12--12--12--------------------------|
B|--10--10--10--------------------------|
G|--x---x---x----------6-6-7-7-7-9-9-11-|
D|999-999-999-9/1111-0-x-x-x-x-x-x-x-x--|
A|999-999-999-9/1111-0-4-4/5-5-5/7-7/9--|
D|999-999-999-9/1111-0------------------|

E|--------------------------------------------|
B|--------------------------------------------|
G|--------------------------------------------|
D|5-5-4h5p4--5-5-4h5p4--557-557-557-7-9/10-10-|
A|5--------5-5--------5-555-555-555-5-9/10-10-|
D|5----------5----------555-555-555-5-9/10-10-|
pm----------------------**--**--**------------|

E|--12--12--12--------------------------|
B|--10--10--10--------------------------|
G|--x---x---x----------6-6-7-7-7-9-9-11-|
D|999-999-999-9/1111-0-x-x-x-x-x-x-x-x--|
A|999-999-999-9/1111-0-4-4/5-5-5/7-7/9--|
D|999-999-999-9/1111-0------------------|

E|------------------------------------|
B|--3-2h3p2----5-3h5p3----7--5--7b7b7-|
G|---------2----------2---------------|
D|5----------5----------55-55-55------|
A|5----------5----------55-55-55------|
D|5----------5----------55-55-55------|
pm----------------------**-**-**------|

Outro
E|------1212-1212-12------------------|
B|------1010-1010-10------------------|
G|------x-x--x-x--x--6-6-7-7-7-9-9-11-|
D|999-999-9-99-9-99--x-x-x-x-x-x-x-x--|
A|999-999-9-99-9-99--4-4/5-5-5/7-7/9--|
D|999-999-9-99-9-99-------------------|

E|------------------------------|
B|------------------------------|
G|------------------------6-7-9-|
D|5---7---5---7---5---7---x-x-x-|
A|5-5---5-5-5---5-5-5---5-4-5-7-|
D|5-------5-------5-------------|

E|----12---12-----12---12-----------------|
B|----10---10-----10---10-----------------|
G|----x----x------x----x-6-6-7-7-7-9-9-11-|
D|999---99----999---99---x-x-x-x-x-x-x-x--|
A|999---99----999---99---4-4/5-5-5/7-7/9--|
D|999---99----999---99--------------------|
pm***---**----***---**--------------------|

E|----------------------------------|
B|----------------------------------|
G|----------------------------------|
D|--------------------------------9-|
A|--------------------------------9-|
D|555545454555454545554545455545459-|

Solo - Outro
E|2----2-0~--------------------------------5--5----5-3-2-0-2-2h3p2-0-2~-|
B|-3-3------3-2-3----7-7-7b-7-5~-3-2-3-5-3---3--2-3---------------------|
G|----------------2~----------------------------------------------------|
D|----------------------------------------------------------------------|
A|----------------------------------------------------------------------|
D|----------------------------------------------------------------------|

E|--------------------|
B|3-3-/7\3-33-3-2-0---|
G|------------------2-|
D|--------------------|
A|--------------------|
D|--------------------|
Добавлено: 05.04.2012
Другие материалы по этой песне:

Страница создана 12.03.2012
http://primanota.ru/inme/soldier-chords.htm
Привет, Гость.
Предлагаем пройти революционный курс по гитаре.
Подарок от PrimaNota.Ru, забирай!