PrimaNota.ru - самый крупный в мире бесплатный архив песенных текстов, аккордов, табулатур и нот


Inme - So You Know - текст песни, таба, бас-таба, видео

Регистрация Запомнить меня
Войти через:  Facebook Google Twitter Vk Yandex Mail.ru

Inme - So You Know - текст песни, таба, бас-таба, видео

Печатать
Просмотров: 202
So You Know
 by InMe
 Album: White Butterfly
 Words & Music by InMe
 Tabbed by Dean Richards
   
 Intro (0:00)
 
 Just so you know, Just so you know
 Just so you know, Just so you know

 E |------------| |--------------|
 B |---10---10--| |----10----10--|
 G |--7--7-7--7-| |---------7--7-|
 D |-9----9-----| |---9--9-7-----|
 A |------------| |-10-----------|
 D |------------| |--------------| X3
       (0:14)
 E |------------|
 B |------------|
 G |------------|
 D |-5-7/9------|
 A |-5-7/9------|
 D |-5-7/9------|

Добавлено: 21.06.2012
Другие материалы по этой песне:

Страница создана 08.03.2012
http://primanota.ru/inme/so-you-know-chords.htm
Привет, Гость.
Предлагаем пройти революционный курс по гитаре.
Подарок от PrimaNota.Ru, забирай!