PrimaNota.ru - самый крупный в мире бесплатный архив песенных текстов, аккордов, табулатур и нот


Inme - Myths And Photographs - бас-таба, видео

Регистрация Запомнить меня
Войти через:  Facebook Google Twitter Vk Yandex Mail.ru

Inme - Myths And Photographs - бас-таба, видео

Печатать
Просмотров: 109
Уроки эстрадного вокала в Санкт-Петербурге
Intro
E|-----------|
D|-----------|
A|-----------|
D|0~------0~-|

Intro contin. x2
E|--------------------------------|
D|--------------------------------|
A|--------------------------------|
D|44444444333333330000000077777777

E|------------------------------------------------------------|
D|----99999--------1111111111--------1212121212---------------|
A|------------------------------------------------------------|
D|9999-----11111111----------12121212----------12121212-00-33-|

Verse 1
E|-------------------------------------------------------|
D|----9------9------9------9b---6------6------6-------6--|b
A|-------------------------------------------------------|
D|7-7--77-77--77-77--77-77---4-4--44-44--44-44--44-44----|

E|----------------------------------------------------------------|
D|----6------6------6------6------6------6------------------------|
A|-----------------------------------------0-7p5h7p5-7p5h7p5-9-11-|
D|0-0--00-00--00-00--00-00--00-00--00-00--------------------------|

E|-------------------------------------------------------|
D|----9------9------9------9b---6------6------6-------6--|b
A|-------------------------------------------------------|
D|7-7--77-77--77-77--77-77---4-4--44-44--44-44--44-44----|

E|----------------------------------------------------------------|
D|----------------------------------------------------------------|
A|---2------4------5-------7------9------11------12------14141414-|
D|0-0--00-00--00-00--00-00--00-00--00-00---00-00---00-00----------|

Prechorus
E|-----------------------------------|
D|-----------------------------------|
A|0-0-0-07p5h7/9p7h9/11p9h1109/11/12-|
D|-----------------------------------|

E|----------------------------------------|
D|----------------------------------------|
A|----------------------------------------|
D|44--44-44-00--00-00-22--22-22-77--66-77-|

E|-----------------------------------------|
D|-----------------------------------------|
A|-----------------------------------------|
D|44--44-44-00--00-00-22--22-22-66--66-6\\-|

Chorus x2
E|------------------------------------|
D|------------------------------------|
A|------------------------------------|
D|0-0-0-0-2-2-2-2-4-4-4-4-6p4-6p4-677-|

Verse 2
E|-------------------------------------------------------|
D|----9------9------9------9b---6------6------6-------6--|b
A|-------------------------------------------------------|
D|7-7--77-77--77-77--77-77---4-4--44-44--44-44--44-44----|

E|----------------------------------------------------------------|
D|----6------6------6------6------6------6------------------------|
A|-----------------------------------------0-7p5h7p5-7p5h7p5-9-11-|
D|0-0--00-00--00-00--00-00--00-00--00-00--------------------------|

E|-------------------------------------------------------|
D|----9------9------9------9b---6------6------6-------6--|b
A|-------------------------------------------------------|
D|7-7--77-77--77-77--77-77---4-4--44-44--44-44--44-44----|

E|----------------------------------------------------------------|
D|----------------------------------------------------------------|
A|---2------4------5-------7------9------11------12------14141414-|
D|0-0--00-00--00-00--00-00--00-00--00-00---00-00---00-00----------|

Prechorus
E|-----------------------------------|
D|-----------------------------------|
A|0-0-4-4-6-6-7-7-9-9-11-11-12121212-|
D|-----------------------------------|

E|----------------------------------------|
D|----------------------------------------|
A|----------------------------------------|
D|44--44-44-00--00-00-22--22-22-77--66-77-|

E|-----------------------------------------|
D|-----------------------------------------|
A|-----------------------------------------|
D|44--44-44-00--00-00-22--22-22-66--66-6\\-|

Chorus
E|--------------------------------------------|
D|--------------------------------------------|
A|--------------------------------------------|
D|0-0-0-7p6h7-2-2-2-7p6h7-4-4-4-4-6p4-6p4-677-|

E|----------------------------------------------|
D|----------------------------------------------|
A|------------------------------------7h9-12-12-|
D|0-0-0-7p6h7-2-2-2-7p6h7-4-4-4-4-6h7-----------|

Break x2
E|----------------------------------------------------------------|
D|--9----9----9----9b----6----6----6----6b---6---6----6----6----6-|
A|-7----7----7----7----4----4----4----4----0----0----0----0----0--|
D|7----7----7----7----4----4----4----4----0----0----0----0----0---|

E|-------------------|
D|--6----6----6----6-|
A|-0----0----0----0--|
D|0----0----0----0---|

E|--------------------------------|
D|--------------------------------|
A|--------------------------------|
D|44444444333333330000000077777777

E|------------------------------------------------------------|
D|----99999--------1111111111--------1212121212---------------|
A|------------------------------------------------------------|
D|9999-----11111111----------12121212----------12121212-00-33-|

Prechorus x2
E|----------------------------------------|
D|----------------------------------------|
A|----------------------------------------|
D|44--44-44-00--00-00-22--22-22-77--66-77-|

E|-----------------------------------------|
D|-----------------------------------------|
A|-----------------------------------------|
D|44--44-44-00--00-00-22--22-22-66--66-6\\-|

Outro x2
E|--------------------------------|
D|--------------------------------|
A|--------------------------------|
D|44444444333333330000000077777777

E|------------------------------------------------------------|
D|----99999--------1111111111--------1212121212---------------|
A|------------------------------------------------------------|
D|9999-----11111111----------12121212----------12121212-00-33-|
Добавлено: 20.04.2012
Другие материалы по этой песне:

Страница создана 20.04.2012
http://primanota.ru/inme/myths-and-photographs-chords.htm
Привет, Гость.
Предлагаем пройти революционный курс по гитаре.
Подарок от PrimaNota.Ru, забирай!