PrimaNota.ru - самый крупный в мире бесплатный архив песенных текстов, аккордов, табулатур и нот


Inme - Little Mortalities - таба, видео

Регистрация Запомнить меня
Войти через:  Facebook Google Twitter Vk Yandex Mail.ru

Inme - Little Mortalities - таба, видео

Печатать
Просмотров: 115
Rare InMe song, but one of my fav's

Drop D


e -------------------7p3-----7p3---------------------|
B -----------------------7p3-----7p3--7p3------------|
G ---------------------------------------------------|
D ----7/9-9--7--5------------------------------------|
A ----5/7-7--5--3------------------------------------|
D ---------------------------------------------------|

e -------------------7p3-----7p3----------------------|
B -----------------------7p3-----7p3------------------|
G -------------------------------------7p5--7p5--7p5--|
D ----7/9-9--7--5-------------------------------------|
A ----5/7-7--5--3-------------------------------------|
D ----------------------------------------------------|
(you can play open D string at parts of song instead)

 (Repeat these two parts above)

e --------------------------------------------------|
B --------------------------------------------------|
G --------------------------------------------------|
D -----5----5---------------------------------------|
A --------------------------------------------------|
D ---5---4-----3------------------------------------|

Chorus - get the strum pattern yourself

e --------------------------------------------------|
B --------------------------------------------------|
G ------------------------------4-------------------|
D ----5-----7-----5-----4---4p5---5-4---------------|
A ----5-----5-----3-------------------5-------------|
D ----5---------------------------------------------|


Bridge - your smart figure out timings etc
repeat few times then end with the 3

e --------------------------------------------------|
B --------------------------------------------------|
G -------------------------4-4p5--------------------|
D -----4--4p5------------5-------5-----------3------|
A ----5-------5--------5-----------5---------3------|
D ---5----------5----------------------------3------|

all parts here, easy song, FIN
Добавлено: 23.03.2012
Другие материалы по этой песне:
  • Аккорды и текст

Страница создана 23.03.2012
http://primanota.ru/inme/little-mortalities-chords.htm
Привет, Гость.
Предлагаем пройти революционный курс по гитаре.
Подарок от PrimaNota.Ru, забирай!