PrimaNota.ru - самый крупный в мире бесплатный архив песенных текстов, аккордов, табулатур и нот


Inme - In Loving Memory - текст песни, таба, видео

Регистрация Запомнить меня
Войти через:  Facebook Google Twitter Vk Yandex Mail.ru

Inme - In Loving Memory - текст песни, таба, видео

Печатать
Просмотров: 125
rough version of d song cos its vry hard 2 understand 4 me

Intro
E|--------------------------------------------------------------------------|
B|--------------------------------------------------------------------------|
G|---------9p6-----11-9-----------------------99/11h12p11\9---99/11h12p11\9-|
D|9----7-7----7-5-------12-11h12p11---------9--------------10---------------|
A|9-7h9--7------5------------------12-12p11-9--------------10---------------|
D|9------7------5---------------------12p11-9--------------10---------------|

E|-----------------------------------10-10--14-12--------------------|
B|------------------------------------------------15-14h15p14--------|
G|--------------------------------12-------------------------14------|
D|-----------------------9----7-7---------5--------------------12p11-|
A|------12-------12------9-7h9--7---------5--------------------------|
D|11-12----11-12---12p11-9------7---------5--------------------------|

E|------------------------------------------------|
B|------------------------------------------------|
G|--99/11h12p11\9---99/11h12p11\9-----------------|
D|9--------------10-------------------7-----7-----|
A|9--------------10---------------4-5---4-5---4-5-|
D|9--------------10-------------------------------|

Verse 1
E|--------------------------------|
B|--------------------------------|
G|--------------------------------|
D|----7-----7---------7-----7-----| x6 Not 2 sure on dis, lots of gtr stuff
A|4-5---4-5---4-5-4-5---4-5---4-5-|
D|--------------------------------|

E|---------------------|
B|---------------------|
G|---------------------|
D|5--4--2~-------------|
A|5--5--2~-------------|
D|5--4--2~---002002002-|

Chorus
E|10-1010--10-10--5--55-5--5-55-5--5----------|
B|10-1010--10-10--5--77-7--5-55-5--5----------|
G|11-1111--11-11--7--77-7--6-76-7--6----------|
D|9---9-9---9--9--5--55-5--7-77-7--7--------7-|
A|9---9-9---9--9--5--55-5--7-77-7--7-9b-7\5---|
D|9---9-9---9--9--5--55-5--7-77-7--7----------|

E|10-1010--10-10--5--55-5--5-55-5--5---------|
B|10-1010--10-10--5--77-7--5-55-5--5---------|
G|11-1111--11-11--7--77-7--6-76-7--6---------|
D|9---9-9---9--9--5--55-5--7-77-7--7---------|
A|9---9-9---9--9--5--55-5--7-77-7--7-9b-7\5--|
D|9---9-9---9--9--5--55-5--7-77-7--7---------|

E|----------------------------------------------|
B|----------------------------------------------|
G|-------------------------------------------9--|b
D|9-0h110h120h110h70h90h45-0h70h90h70h40h50h7---|
A|9----------------------5----------------------|
D|9----------------------5----------------------|

E|
B|-----------------------------------------12--|b
G|---------------------------------------------|
D|7-0h110h120h110h70h90h47-0h70h90h70h40h5-----|
A|7----------------------7---------------------|
D|7----------------------7---------------------|

E|----------------------------------------------|
B|----------------------------------------------|
G|-------------------------------------------9--|b
D|9-0h110h120h110h70h90h45-0h70h90h70h40h50h7---|
A|9----------------------5----------------------|
D|9----------------------5----------------------|

E|
B|-----------------------------------------12--|b
G|---------------------------------------------|
D|7-0h110h120h110h70h90h47-0h70h90h70h40h5-----|
A|7----------------------7---------------------|
D|7----------------------7---------------------|

E|------------------------------------------|
B|------------------------------------------|
G|---------9p6-----11-9---------------------|
D|9----7-7----7-5-------12-11h12p11---------|
A|9-7h9--7------5------------------12-------|
D|9------7------5---------------------12p11-|

Verse 2

E|--------------------------------|
B|--------------------------------|
G|--------------------------------|
D|----7-----7---------7-----7-----| x6  Again not 2 sure on dis
A|4-5---4-5---4-5-4-5---4-5---4-5-|
D|--------------------------------|

E|---------------------|
B|---------------------|
G|---------------------|
D|5--4--2~-------------|
A|5--5--2~-------------|
D|5--4--2~---002002002-|

Chorus
E|10-1010--10-10--5--55-5--5-55-5--5----------|
B|10-1010--10-10--5--77-7--5-55-5--5----------|
G|11-1111--11-11--7--77-7--6-76-7--6----------|
D|9---9-9---9--9--5--55-5--7-77-7--7--------7-|
A|9---9-9---9--9--5--55-5--7-77-7--7-9b-7\5---|
D|9---9-9---9--9--5--55-5--7-77-7--7----------|

E|10-1010--10-10--5--55-5--5-55-5--5---------|
B|10-1010--10-10--5--77-7--5-55-5--5---------|
G|11-1111--11-11--7--77-7--6-76-7--6---------|
D|9---9-9---9--9--5--55-5--7-77-7--7---------|
A|9---9-9---9--9--5--55-5--7-77-7--7-9b-7\5--|
D|9---9-9---9--9--5--55-5--7-77-7--7---------|

E|----------------------------------------------|
B|----------------------------------------------|
G|-------------------------------------------9--|b
D|9-0h110h120h110h70h90h45-0h70h90h70h40h50h7---|
A|9----------------------5----------------------|
D|9----------------------5----------------------|

E|
B|-----------------------------------------12--|b
G|---------------------------------------------|
D|7-0h110h120h110h70h90h47-0h70h90h70h40h5-----|
A|7----------------------7---------------------|
D|7----------------------7---------------------|

E|----------------------------------------------|
B|----------------------------------------------|
G|-------------------------------------------9--|b
D|9-0h110h120h110h70h90h45-0h70h90h70h40h50h7---|
A|9----------------------5----------------------|
D|9----------------------5----------------------|

E|
B|-----------------------------------------12--|b
G|---------------------------------------------|
D|7-0h110h120h110h70h90h47-0h70h90h70h40h5-----|
A|7----------------------7---------------------|
D|7----------------------7---------------------|

Break(ish bit)
E|-------------------------19-21----9--9--9--|
B|--------------------------------10-10-10---|
G|-----------------------------------------9-|
D|9-0h110h120h110h70h90h45------7------------|
A|9----------------------5------7------------|
D|9----------------------5------7------------|

E|------------------------------------12-14-----------------|
B|--------------------------------------------12-10---------|
G|--------------------------------------------------11-9--7-|
D|9-9h11p9h1111h12p11h1212h14p12h145--------7---------------|
A|9--------------------------------5--------7---------------|
D|9--------------------------------5--------7---------------|

E|--------------------------------------------|
B|--------------------------------------------|
G|--------------------------------------16h18-|
D|-----------13h14p13h1414h16p14h1616h18------|
A|14h16p14h16---------------------------------|
D|--------------------------------------------|

E|---------------21----|
B|-----------------22--|
G|-------------19------|
D|5--4--2~---21--------|
A|5--5--2~-------------| x4
D|5--4--2~-------------|

Chorus
E|10-1010--10-10--5--55-5--5-55-5--5----------|
B|10-1010--10-10--5--77-7--5-55-5--5----------|
G|11-1111--11-11--7--77-7--6-76-7--6----------|
D|9---9-9---9--9--5--55-5--7-77-7--7--------7-|
A|9---9-9---9--9--5--55-5--7-77-7--7-9b-7\5---|
D|9---9-9---9--9--5--55-5--7-77-7--7----------|

E|10-1010--10-10--5--55-5--5-55-5--5---------|
B|10-1010--10-10--5--77-7--5-55-5--5---------|
G|11-1111--11-11--7--77-7--6-76-7--6---------|
D|9---9-9---9--9--5--55-5--7-77-7--7---------|
A|9---9-9---9--9--5--55-5--7-77-7--7-9b-7\5--|
D|9---9-9---9--9--5--55-5--7-77-7--7---------|

E|----------------------------------------------|
B|----------------------------------------------|
G|-------------------------------------------9--|b
D|9-0h110h120h110h70h90h45-0h70h90h70h40h50h7---|
A|9----------------------5----------------------|
D|9----------------------5----------------------|

E|
B|-----------------------------------------12--|b
G|---------------------------------------------|
D|7-0h110h120h110h70h90h47-0h70h90h70h40h5-----|
A|7----------------------7---------------------|
D|7----------------------7---------------------|

E|----------------------------------------------|
B|----------------------------------------------|
G|-------------------------------------------9--|b
D|9-0h110h120h110h70h90h45-0h70h90h70h40h50h7---|
A|9----------------------5----------------------|
D|9----------------------5----------------------|

E|
B|----------------------------------------------|
G|-------------------------------------------9--|b
D|7-0h110h120h110h70h90h47-0h70h90h70h40h5------|
A|7----------------------7----------------------|
D|7----------------------7----------------------|

E|--------------------------------------------------------------------------|
B|--------------------------------------------------------------------------|
G|---------9p6-----11-9-----------------------99/11h12p11\9---99/11h12p11\9-|
D|9----7-7----7-5-------12-11h12p11---------9--------------10---------------|
A|9-7h9--7------5------------------12-12p11-9--------------10---------------|
D|9------7------5---------------------12p11-9--------------10---------------|

E|-----------------------------------10-10--14-12--------------------|
B|------------------------------------------------15-14h15p14--------|
G|--------------------------------12-------------------------14------|
D|-----------------------9----7-7---------5--------------------12p11-|
A|------12-------12------9-7h9--7---------5--------------------------|
D|11-12----11-12---12p11-9------7---------5--------------------------|

E|------------------------------------------------|
B|------------------------------------------------|
G|--99/11h12p11\9---99/11h12p11\9-----------------|
D|9--------------10-------------------7-----7-----|
A|9--------------10---------------4-5---4-5---4-5-|
D|9--------------10-------------------------------|

Outro
E|------5~-------5~-------5~-------5~-|
B|------5~-------5~-------5~-------5~-|
G|------7~-------7~-------7~-------7~-|
D|------------------------------------|
A|55-5-5---55-5-5---77-7-7---77-7-7---|
D|55-5-5---55-5-5---77-7-7---77-7-7---|
pm**-*-*---**-*-*---**-*-*---**-*-*---|

E|------5~-------5~---------------|
B|------5~-------5~---------------|
G|------7~-------7~-------7-------|
D|---------------------------7-0~-|
A|55-5-5---55-5-5---00-0-0--0--0~-|
D|55-5-5---55-5-5---00-0-0--0--0~-|
pm**-*-*---**-*-*---**-*-*--*-----|

and there is the most annoying tab ive done, comment on things that you think could be changed
Добавлено: 29.03.2012
Другие материалы по этой песне:

Страница создана 29.03.2012
http://primanota.ru/inme/in-loving-memory-chords.htm
Привет, Гость.
Предлагаем пройти революционный курс по гитаре.
Подарок от PrimaNota.Ru, забирай!