PrimaNota.ru - самый крупный в мире бесплатный архив песенных текстов, аккордов, табулатур и нот


Inme - Ice Warm - аккорды и текст, таба, бас-таба, видео

Регистрация Запомнить меня
Войти через:  Facebook Google Twitter Vk Yandex Mail.ru

Inme - Ice Warm - аккорды и текст, таба, бас-таба, видео

Печатать
Просмотров: 175
Ice Warm
Inme
Intro
E-------------------------------------------------7-------
B-3---8/6---7-8-10-11-11-11-11--13-15--------------7----
G--------------------------------------14-15-14------------
D----------------------------------------------------------
A----------------------------------------------------------
D----------------------------------------------------------

Verse
E-----------------------------------------------
B-3---8/6--7-8-10-11-11-11-11--13-15----------
G-------------------------------------14-15-14--   x2
D-----------------------------------------------
A-----------------------------------------------
D-----------------------------------------------

Pre Chorus
E-------------------
B--8---------8------
G---7---8-----7-----
D--------8----------
A-------------------
D-------------------

Chorus
E------------------------------------
B------------------------------------
G------------------------------------
D--8-8--7-7-7-7-7-7--7-7-5/7/8-------    x4
A--8-8---------------7-7-5/7/8-------
D--8-8---------------7-7-5/7/8-------

Pre-verse
E-----------------------------------------7-------------
B---7-8-10-11-11-11-11--13-15---------------7-----------
G----------------------------14-15-14--------------------
D--------------------------------------------------------
A--------------------------------------------------------
D--------------------------------------------------------

Verse
E----------------------------------------------
B-3--8/6--7-8-10-11-11-11-11--13-15----------
G------------------------------------14-15-14--   x2
D----------------------------------------------
A----------------------------------------------
D----------------------------------------------

Pre Chorus
E-------------------
B--8---------8------
G---7---8-----7-----
D--------8----------
A-------------------
D-------------------

Chorus
E------------------------------------
B------------------------------------
G------------------------------------
D--8-8--7-7-7-7-7-7--7-7-5/7/8-------    x4
A--8-8---------------7-7-5/7/8-------
D--8-8---------------7-7-5/7/8-------

Bridge
E---------------------------------------
B---3--8/6--7-8-10-11-11-11-11-11-11----
G---------------------------------------
D---------------------------------------
A---------------------------------------
D---------------------------------------

Then
E--------------------------------
B--------------------------------
G--------------------------------
D---5-5-5---1-1-1--5-5-5--1-1-1--
A---5-5-5---1-1-1--5-5-5--1-1-1--
D---5-5-5---1-1-1--5-5-5--1-1-1--

Chorus
E------------------------------------
B------------------------------------
G------------------------------------
D--8-8--7-7-7-7-7-7--7-7-5/7/8-------    x4
A--8-8---------------7-7-5/7/8-------
D--8-8---------------7-7-5/7/8-------
Добавлено: 24.02.2014
Другие материалы по этой песне:

Страница создана 23.02.2012
http://primanota.ru/inme/ice-warm-chords.htm
Привет, Гость.
Предлагаем пройти революционный курс по гитаре.
Подарок от PrimaNota.Ru, забирай!