PrimaNota.ru - самый крупный в мире бесплатный архив песенных текстов, аккордов, табулатур и нот


Inme - I Wont Let Go - текст песни, таба, бас-таба, видео

Регистрация Запомнить меня
Войти через:  Facebook Google Twitter Vk Yandex Mail.ru

Inme - I Wont Let Go - текст песни, таба, бас-таба, видео

Печатать
Просмотров: 173
Уроки эстрадного вокала в Санкт-Петербурге
As soon as i heard this i loved it!
so when i bought the single
i decided to tab it seeing as no one
had got it 100%
this aint 100% right
but i think it sounds pretty much reight so yeah!


I tabbed this for just one gutiar
the intro's a bit tricky gettin used to
but once you've got it
its awesome! :]


InMe - I Won't Let Go



Tabbed by: Tyleon3

Tuning: Drop D


Intro


e|---------------------------------------|
b|---------------------------------------|
g|---------------------------------------|
d|---------------------------------------|
a|---------------------------------------|
D|--<4><4><4><3><3><3><2><2><2>----------|

This is as soon as the song starts
It goes with the drums.
Also if you dont know what the brackets stand for
it means the the note is a natural harmonic




e|---------------------------------------|
b|---------------------------------------|
g|---5-5-----------5/7-7-----------------|
d|---x-x-----------x-x-x-----------------|
a|---3-3-0-0-0-000-3/5-5-0-0-0-000-------|
D|-------0-0-0-000-------0-0-0-000-------|
PM.      . . . ...       . . . ...

e|---------------------------------------|
b|---------------------------------------|
g|--5-5----5/7-7---7/9-9----12-11--------|
d|--2-2----2/4-4---4/5-5-----9--7--------|
a|--3-3-00-3/5-5-0-5/7-7-00-10--9--------|
D|------00-------0-------00--------------|
PM.     ..       .       ..    


e|---------------------------------------|
b|---------------------------------------|
g|--5-5----5/7-7-------------------------|
d|--2-2----2/4-4--------8-----10---------|
a|--3-3-00-3/5-5-00-0---8-X8--10-X8------|
D|------00-------00-0---8-----10---------|
PM.     ..       .. .         



Verse

Verse

|--------------------------------------|
|--------------------------------------|
|--------------------------------------|x2
|-------2------2------2----------------|
|---0------0-----0------0---0----------|
|--0--0------0------0-----0------------|

|--------------------------------------|
|--------------------------------------|
|--------------------------------------|x1
|-------7------7------7----------------|
|---0-----0------0------0---0----------|
|--0--0------0------0-----0------------|

|--------------------------------------|
|--------------------------------------|
|--------------------------------------|x1
|-------2------2------2----------------|
|---0------0-----0------0---0----------|
|--0--0------0------0-----0------------|      


Repeat all that 4 times or so


Bridge 


e|-------------------------|
b|---------8/10-8-7--------|
g|-------------------------|
d|-------------------------|
a|-0000--------------------|
D|-0000--------------------|
PM.....


Chorus

e|--------------------------------------|
b|--------------------------------------|
g|--------------------------------------|
d|--9x9x9x99999---5x5x5x55555-----------|
a|--9x9x9x99999---5x5x5x55555-----------|
D|--9x9x9x99999---5x5x5x55555-----------|

e|--------------------------------------|
b|------------------7--5----------------|
g|------------------------7--6--6/7-----|
d|--7x7x7x77777---44-44-44-44-44--------|
a|--7x7x7x77777---44-44-44-44-44--------|
D|--7x7x7x77777---44-44-44-44-44--------|

e|------------------------------<5>-----|
b|---------------------------<5>--<5>---|
g|------------------------<5>--------<5>|
d|--9x9x9x99999---5x5x5x55--------------|
a|--9x9x9x99999---5x5x5x55--------------|
D|--9x9x9x99999---5x5x5x55--------------|

e|--------------------------------------|
b|------------------7--5----------------|
g|------------------------7--6--6/7-----|
d|--7x7x7x77777---44-44-44-44-44--------|
a|--7x7x7x77777---44-44-44-44-44--------|
D|--7x7x7x77777---44-44-44-44-44--------|



repeat from the verse
       
Then do the intro again here





Interlude

Played Clean

e|--------------------------------------|
b|--------------------------------------|
g|--------------------------------------|
d|--8-------8-8--10---------10-10-------|
a|--8-------8-8--10---------10-10-------|
D|--8--8-8--8-8--10--10-10--10-10-------|

e|--------------------------------------|
b|--------------------------------------|
g|--------------------------------------|
d|--5-------5-5--5-------5-5------------|
a|--5-------5-5--5-------5-5------------|
D|--5--5-5--5-5--5--5-5--5-5------------|
 
e|--------------------------------------|
b|--------------------------------------|
g|--------------------------------------|
d|--8-------8-8--10---------10-10-------|
a|--8-------8-8--10---------10-10-------|
D|--8--8-8--8-8--10--10-10--10-10-------|


e|--------------------------------------|
b|--------------------------------------|
g|--------------------------------------|
d|--5-------5-5-------------------------|
a|--5-------5-5-------------------------|
D|--5--5-5--5-5--<4><4><4><3><3><2><2>--|


Distorted

e|--------------------------------------|
b|--------------------------------------|
g|-10-10-10-10-12-12-10-10--------------|
d|--8--8--8--8--8--8--8--8--------------|
a|--8--8--8--8--8--8--8--8--------------|
D|--8--8--8--8--8--8--8--8--------------|

e|--------------------------------------|
b|--------------------------------------|
g|-12-12-12-12-14-14-12-12--------------|
d|-10-10-10-10-10-10-10-10--------------|
a|-10-10-10-10-10-10-10-10--------------|
D|-10-10-10-10-10-10-10-10--------------|

e|--------------------------------------|
b|--------------------------------------|
g|--7--7--7--7--9--9--7--7--------------|x2 
d|--5--5--5--5--5--5--5--5--------------|
a|--5--5--5--5--5--5--5--5--------------|
D|--5--5--5--5--5--5--5--5--------------| 



e|-------------------------|
b|-------------------------|
g|-------------------------|
d|-------------------------|
a|-00000000----------------|
D|-00000000----12\---------|
PM.........


Repeat chorus



Ending


|--------------------------------------|
|--------------------------------------|
|--------------------------------------|
|-------2------2------2----------------|
|---0------0-----0------0---0----------|
|--0--0------0------0-----0------------|

|--------------------------------------|
|--------------------------------------|
|--------------------------------------|
|-------7------7------7----------------|
|---0-----0------0------0---0----------|
|--0--0------0------0-----0------------|

|--------------------------------------|
|--------------------------------------|
|-------2------2------2----------------|
|---0------0-----0------0---0----------|
|--0--0------0------0-----0------------|

|--------------------------------------|
|--------------------------------------|
|--------------------------------------|
|-------0------0------0----------------|
|---0------0-----0------0---0----------|
|--0--0------0------0-----0------<5>---|  



Thats it!

:] thanks...x

Добавлено: 10.06.2012
Другие материалы по этой песне:
  • Аккорды и текст

Страница создана 16.03.2012
http://primanota.ru/inme/i-wont-let-go-chords.htm
Привет, Гость.
Предлагаем пройти революционный курс по гитаре.
Подарок от PrimaNota.Ru, забирай!