PrimaNota.ru - самый крупный в мире бесплатный архив песенных текстов, аккордов, табулатур и нот


Inme - I Will Honour You - таба, видео

Регистрация Запомнить меня
Войти через:  Facebook Google Twitter Vk Yandex Mail.ru

Inme - I Will Honour You - таба, видео

Печатать
Просмотров: 137
intro and v1

E|--0-------------x--------------x---------------------------------------|
B|--0-------------x--------------4---------------------------------------|
G|--6---x12-------1--x12---------x--------x12-------------8-----x12------|
D|--7-------------2--------------6------------------------9--------------|
A|--7-------------2--------------6------------------------9--------------|
E|--5-------------0--------------4------------------------7--------------|


Chorus

E|0-------------------------x--------------------x--------------------------|
B|0-------------------------4--------------------5--------------------------|
G|6---x12----8--x12---------x--------x7----------x-----x5--------8-x7--9-x5-|   
D|7----------9--------------6--------------------6---------------9-----9----|
A|7----------9--------------6--------------------6---------------9-----9----|
E|5----------7--------------4--------------------4---------------7-----7----|
                                            x3
Repeat intro
and chorus for as many times as needed i think its about 4 or 5

outro
repeat chorus only play once

and thats it.

not sure if it right but it sounds it.

please post corrections if you see a problem.
Добавлено: 08.03.2012
Другие материалы по этой песне:

Страница создана 04.03.2012
http://primanota.ru/inme/i-will-honour-you-chords.htm
Привет, Гость.
Предлагаем пройти революционный курс по гитаре.
Подарок от PrimaNota.Ru, забирай!