PrimaNota.ru - самый крупный в мире бесплатный архив песенных текстов, аккордов, табулатур и нот


Inme - Her Mask Pa - таба, видео

Регистрация Запомнить меня
Войти через:  Facebook Google Twitter Vk Yandex Mail.ru

Inme - Her Mask Pa - таба, видео

Печатать
Просмотров: 70
Уроки эстрадного вокала в Санкт-Петербурге
--------------------------------------------------------------
        Her Mask (P.A.) - InMe
--------------------------------------------------------------

Tabbed by: Trowzaa
Song name: Her Mask (P.A.)
Artist: InMe
Album: Overgrown Eden
Tuning: Dropped D (DADGBe)

Key
 - Harmonic
~ - Let ring
/ \ - Slide
h/p - Hammer-on/Pull-off
x - Dead note
pm - Palm mute

Intro

e|--------------|-------------|--------------|-------------|
B|--------------|-------------|--------------|-------------|
G|--------------|-------------|--------------|-------------|
D|-------<5>----|-----3~------|-------<7>----|-----0~------|
A|----<5>-------|---3~--------|----<7>-------|---8~--------|
D|-<5>--------2-|-3~----------|-<7>----------|-8~----------|

The part that plays next is all bass until

Verse

e|-------------------------|---------------------------------|
B|-------------------------|---------------------------------|
G|-------------------------|--------/5-5-5-5-3-3-3-3-2h3p2-0-|
D|-------12~---------14~---|-----5~--------------------------|
A|----10~---------12~------|---3~----------------------------|
D|-10~---------12~---------|-3~------------------------------|

e|-------------------------|----------------------------------------------|
B|-------------------------|----------------------------------------------|
G|-------------------------|---------/10-10-10-10/12-12-12-12-12/15-14-12-|
D|-------12~---------14~---|-----10~--------------------------------------|
A|----10~---------12~------|---8~-----------------------------------------|
D|-10~---------12~---------|-8~-------------------------------------------|

e|-------------------------|---------------------------------|
B|-------------------------|---------------------------------|
G|-------------------------|--------/5-5-5-5-3-3-3-3-2h3p2-0-|
D|-------12~---------14~---|-----5~--------------------------|
A|----10~---------12~------|---3~----------------------------|
D|-10~---------12~---------|-3~------------------------------|

e|-------------------------|-----------------------------------|
B|-------------------------|-----------------------------------|
G|-------------------------|-----------------------------------|
D|-------12~---------14~---|-8-8-8-10-8-8-8-7-8-8-8-10-8-8-8-7-|
A|----10~---------12~------|-8-8-8-10-8-8-8-7-8-8-8-10-8-8-8-7-|
D|-10~---------12~---------|-8-8-8-10-8-8-8-7-8-8-8-10-8-8-8-7-|

Verse

e|-------------------------|---------------------------------|
B|-------------------------|---------------------------------|
G|-------------------------|--------/5-5-5-5-3-3-3-3-2h3p2-0-|
D|-------12~---------14~---|-----5~--------------------------|
A|----10~---------12~------|---3~----------------------------|
D|-10~---------12~---------|-3~------------------------------|

e|-------------------------|-----------------------------------|
B|-------------------------|-----------------------------------|
G|-------------------------|-----------------------------------|
D|-------12~---------14~---|-8-8-8-10-8-8-8-7-8-8-8-10-8-8-8-7-|
A|----10~---------12~------|-8-8-8-10-8-8-8-7-8-8-8-10-8-8-8-7-|
D|-10~---------12~---------|-8-8-8-10-8-8-8-7-8-8-8-10-8-8-8-7-|

Chorus

e|---------------------|----------------------|--------------------|----------------------------------|
B|---------------------|----------------------|--------------------|----------------------------------|
G|---------------------|----------------------|--------------------|----------------------------------|
D|-0--0--0-0-0-0--0--0-|-3--3--3-3-3-3--3--xx-|-7--7--7-7-7-7--5-7-|-8-8-8----------------------------|
A|-0--0--0-0-0-0--0--0-|-3--3--3-3-3-3--3--xx-|-7--7--7-7-7-7--5-7-|-8-8-8-8-8-8/10-10-10-10/12-12-12-|
D|-0--0--0-0-0-0--0--0-|-3--3--3-3-3-3--3--xx-|-7--7--7-7-7-7--5-7-|-8-8-8----------------------------|

e|---------------------|---------------------|--------------------|-----------------------------|
B|---------------------|---------------------|--------------------|-----------------------------|
G|---------------------|---------------------|--------------------|-----------------------------|
D|-0--0--0-0-0-0--0--0-|-3--3--3-3-3-3--3--3-|-7--7--7-7-7-7--5-7-|-8-8-8-----------------------|
A|-0--0--0-0-0-0--0--0-|-3--3--3-3-3-3--3--3-|-7--7--7-7-7-7--5-7-|-8-8-8-8-8-8\7-7-7/10\8-8\7--|
D|-0--0--0-0-0-0--0--0-|-3--3--3-3-3-3--3--3-|-7--7--7-7-7-7--5-7-|-8-8-8-----------------------|

Verse

e|-------------------------|---------------------------------|
B|-------------------------|-----------------------3---------|
G|-------------------------|--------/5-5-5-5-3-3-3---2h3p2-0-|
D|-------12~---------14~---|-----5~--------------------------|
A|----10~---------12~------|---3~----------------------------|
D|-10~---------12~---------|-3~------------------------------|

e|-------------------------|------------------------------------|
B|-------------------------|------------------------------------|
G|-------------------------|------------------------------------|
D|-------12~---------14~---|-8-8-8-10-8-8-8-7-8-88-8-10-8-8-8-7-|
A|----10~---------12~------|-8-8-8-10-8-8-8-7-8-88-8-10-8-8-8-7-|
D|-10~---------12~---------|-8-8-8-10-8-8-8-7-8-88-8-10-8-8-8-7-|

e|-------------------------|---------------------------------|
B|-------------------------|-----------------------3---------|
G|-------------------------|--------/5-5-5-5-3-3-3---2h3p2-0-|
D|-------12~---------14~---|-----5~--------------------------|
A|----10~---------12~------|---3~----------------------------|
D|-10~---------12~---------|-3~------------------------------|

e|-------------------------|------------------------------------|
B|-------------------------|------------------------------------|
G|-------------------------|------------------------------------|
D|-------12~---------14~---|-8-8-8-10-8-8-8-7-8-88-8-10-8-8-8-7-|
A|----10~---------12~------|-8-8-8-10-8-8-8-7-8-88-8-10-8-8-8-7-|
D|-10~---------12~---------|-8-8-8-10-8-8-8-7-8-88-8-10-8-8-8-7-|
pm                           . . .    . . .   . .. .    . . . 

Bridge

e|-----------------------------------------|----------------------------------------------|
B|-----------------------------------------|----------------------------------------------|
G|-----------------------------------------|----------------------14----------------------|
D|-----10-----10-----10-----10-------12----|-------14----15----------12----14-------15----|
A|---8----8------8------8---------10----10-|----12----12----12----------------12----------|
D|-8--------8------8------8----10----------|-12----------------12-------12-------12----12-|

e|----------------------------------|------------------------|
B|----------------------------------|-----------------10-10b-|
G|----------------------------------|----------10------------|
D|-----9-----10-----9-----7-----5---|-----10------8----------|
A|---7---7------7-----7-------3---3-|---8----8---------------|
D|-7-------7------7-----7---3-------|-8-------------8--------|

Chorus

e|---------------------|----------------------|--------------------|-------------------------------------|
B|---------------------|----------------------|--------------------|-------------------------------------|
G|---------------------|----------------------|--------------------|-------------------------------------|
D|-0--0--0-0-0-0--0--0-|-3--3--3-3-3-3--3--xx-|-7--7--7-7-7-7--5-7-|-8-8-8-------------------<7>-<7>-<7>-|
A|-0--0--0-0-0-0--0--0-|-3--3--3-3-3-3--3--xx-|-7--7--7-7-7-7--5-7-|-8-8-8-8-8-8/10-10-10-10-------------|
D|-0--0--0-0-0-0--0--0-|-3--3--3-3-3-3--3--xx-|-7--7--7-7-7-7--5-7-|-8-8-8-------------------------------|

e|---------------------|---------------------|--------------------|-----------------|
B|---------------------|---------------------|--------------------|-----------------|
G|---------------------|---------------------|--------------------|-----------------|
D|-0--0--0-0-0-0--0--0-|-3--3--3-3-3-3--3--3-|-7--7--7-7-7-7--5-7-|-888888888888-1/-|
A|-0--0--0-0-0-0--0--0-|-3--3--3-3-3-3--3--3-|-7--7--7-7-7-7--5-7-|-888888888888-1/-|
D|-0--0--0-0-0-0--0--0-|-3--3--3-3-3-3--3--3-|-7--7--7-7-7-7--5-7-|-888888888888-1/-|

Verse

e|-------------------------|---------------------------------|
B|-------------------------|-----------------------3---------|
G|-------------------------|--------/5-5-5-5-3-3-3---2h3p2-0-|
D|-------12~---------14~---|-----5~--------------------------|
A|----10~---------12~------|---3~----------------------------|
D|-10~---------12~---------|-3~------------------------------|

e|-------------------------|------------------------------------|
B|-------------------------|------------------------------------|
G|-------------------------|------------------------------------|
D|-------12~---------14~---|-8-8-8-10-8-8-8-7-8-88-8-10-8-xxxxx-|
A|----10~---------12~------|-8-8-8-10-8-8-8-7-8-88-8-10-8-xxxxx-|
D|-10~---------12~---------|-8-8-8-10-8-8-8-7-8-88-8-10-8-xxxxx-|

e|-------------------------|---------------------------------|
B|-------------------------|-----------------------3---------|
G|-------------------------|--------/5-5-5-5-3-3-3---2h3p2-0-|
D|-------12~---------14~---|-----5~--------------------------|
A|----10~---------12~------|---3~----------------------------|
D|-10~---------12~---------|-3~------------------------------|

e|-------------------------|------------------------------------|
B|-------------------------|------------------------------------|
G|-------------------------|------------------------------------|
D|-------12~---------14~---|-8-8-8-10-8-8-8-7-8-88-8-10-8-8-8-7-|
A|----10~---------12~------|-8-8-8-10-8-8-8-7-8-88-8-10-8-8-8-7-|
D|-10~---------12~---------|-8-8-8-10-8-8-8-7-8-88-8-10-8-8-8-7-|
pm                           . . .    . . .             . . . 






Добавлено: 23.06.2016
Другие материалы по этой песне:

Страница создана 17.04.2012
http://primanota.ru/inme/her-mask-pa-chords.htm
Привет, Гость.
Предлагаем пройти революционный курс по гитаре.
Подарок от PrimaNota.Ru, забирай!