PrimaNota.ru - самый крупный в мире бесплатный архив песенных текстов, аккордов, табулатур и нот


Inme - Happy To Disappoint You - текст песни, таба, видео

Регистрация Запомнить меня
Войти через:  Facebook Google Twitter Vk Yandex Mail.ru

Inme - Happy To Disappoint You - текст песни, таба, видео

Печатать
Просмотров: 144
Уроки эстрадного вокала в Санкт-Петербурге
Happy To Dissapoint You (solo)
InMe

This is from InMe's 4th album Herald Moth. Hasn't been released yet but theres a demo of
song on there myspace so check it out.

Questions? Comment and don't forget to rate!


|-----12---14-16b17r16-----------------------------5*-5*---------------------------------|
|7/10------------------17-12-14-9-10\5-------5*-5*-------5*-5*-7*-5*-5h7p5--\2--0-----/10|
|---------------------------------------------------------------------------------2------|
|----------------------------------------------------------------------------------------|
|----------------------------------------------------------------------------------------|
|----------------------------------------------------------------------------------------|

|------------------------------------------|
|5/8-10---12-12b13r12-10---10b12r10-9---5/7|
|------------------------------------------|
|------------------------------------------|
|------------------------------------------|
|------------------------------------------|

|----------------7p5p4p0-9p5p4p0|
|9p5p4p0-7p5p4p0----------------|
|-------------------------------|
|-------------------------------|  X3
|-------------------------------|
|-------------------------------|
 T       T       T       T

|----------------7p5p4p0-9p5p4p0-10p5p4p0-9p5p4p0-10p5p4p0-12p5p4p0-10p5p4p0-12p5p4p0|
|9p5p4p0-7p5p4p0---------------------------------------------------------------------|
|------------------------------------------------------------------------------------|
|------------------------------------------------------------------------------------|
|------------------------------------------------------------------------------------|
|------------------------------------------------------------------------------------|
 T       T       T       T       T        T       T        T        T        T

|14p5p4p0-12p5p4p0-14p5p4p0-16p5p4p0-14p5p4p0-16p5p4p0-17p5p4p0-16p5p4p0-17p5p4p0-19-|
|------------------------------------------------------------------------------------|
|------------------------------------------------------------------------------------|
|------------------------------------------------------------------------------------|
|------------------------------------------------------------------------------------|
|------------------------------------------------------------------------------------|
 T        T        T        T        T        T        T        T        T        T

|-----------------|
|-----------------|
|------------19b--|
|-----------------|
|-----------------|
|////\\\\---------|
 ^            ^
Slide up     (just keep bending string up and down while tapping your pick near to it
fast)
the neck
and down
Добавлено: 19.03.2012
Другие материалы по этой песне:
  • Аккорды и текст

Страница создана 19.03.2012
http://primanota.ru/inme/happy-to-disappoint-you-chords.htm
Привет, Гость.
Предлагаем пройти революционный курс по гитаре.
Подарок от PrimaNota.Ru, забирай!