PrimaNota.ru - самый крупный в мире бесплатный архив песенных текстов, аккордов, табулатур и нот


Inme - Far Reaching - текст песни, таба, видео

Регистрация Запомнить меня
Войти через:  Facebook Google Twitter Vk Yandex Mail.ru

Inme - Far Reaching - текст песни, таба, видео

Печатать
Просмотров: 124
Уроки эстрадного вокала в Санкт-Петербурге
Rough old skeleton of the song, there a little guitar wanking bits but couldnt get them

Key: *-*-* =Palm Mute

Give us a shout if I miss something out

Intro
E|----------------------------------------|
B|----------------------------------------|
G|----------------------------------------|
D|----------------------------------------|
A|----0h5h7-----0h7h9-----0h5p4-----0h4h5-|
D|0-0-------0-0-------0-0-------0-0-------|

E|----------------------------------------|
B|----------------------------------------|
G|----------------------------------------|
D|----------------------------------------|
A|----0h5h7-----0h7h9-----0h5p4-----0h4h5-|
D|5-5-------5-5-------5-5-------5-5-------|

E|----------------------------------------|
B|----------------------------------------|
G|----------------------------------------|
D|----------------------------------------|
A|----0h5h7-----0h7h9-----0h5p4-----0h4h5-|
D|9-9-------9-9-------7-7-------7-7-------|

E|-----------------------------------------|
B|-----------------------------------------|
G|-----------------------------------------|
D|-----------------------------------------|
A|----0h5h7-----0h7h9-----0h5p4---04050709-|
D|5-5-------5-5-------5-5-------0----------|


Verse
E|9-----------------9----------------------|
B|7-----------------7----------------------|
G|7-----------------7----------------------|
D|-----------------------------------------|
A|--0-0-0-0-0-0-0-0---5-5-5-5-5-5-5-5-5-5--|
D|--0-0-0-0-0-0-0-0---5-5-5-5-5-5-5-5-5-5--|
    *-*-*-*-*-*-*-*     *-*-*-*-*-*-*-*----|

E|9---------------10----9---------------------|
B|7---------------8-----7---------------------|
G|7---------------7-----7---------------------|
D|--------------------------------------------|
A|--0-0-0-0-0-0-0----0----5-5-5-5-5-5-5-5-5-5-|
D|--0-0-0-0-0-0-0----0----5-5-5-5-5-5-5-5-5-5-|
    *-*-*-*-*-*-*----*      *-*-*-*-*-*-*-*---|

E|------------------7----------------------|
B|5-----------------8----------------------|
G|7-----------------7----------------------|
D|-----------------------------------------|
A|--0-0-0-0-0-0-0-0---5-5-5-5-5-5-5-5-5-5--|
D|--0-0-0-0-0-0-0-0---5-5-5-5-5-5-5-5-5-5--|
    *-*-*-*-*-*-*-*     *-*-*-*-*-*-*-*----|

E|----------------------7---------------------|
B|5---------------8-----8---------------------|
G|7---------------7-----7---------------------|
D|--------------------------------------------|
A|--0-0-0-0-0-0-0----0----5-5-5-5-5-5-5-5-5-5-|
D|--0-0-0-0-0-0-0----0----5-5-5-5-5-5-5-5-5-5-|
    *-*-*-*-*-*-*-----------------------------|

Prechorus
E|-------------------|
B|-------------------|
G|------9--7--6------|
D|----7---------9--7-|
A|--7----------------|
D|7------------------|

Chorus
E|----------------------------------------------|
B|----------------------------------------------|
G|-------------------------1414-1212-1111-11-11-|
D|99-99-99-99-99-9-10-1010-1010-1010-1010-10-10-|
A|99-99-99-99-99-9/10-1010-1212-1010-9-9--9--9--|
D|99-99-99-99-99-9/10-1010-1010-1010-1010-10-10-|

E|-------------------------------------|
B|-------------------------------------|
G|------7---------7-7--------9-7-6-----|
D|0-0-0-7-0-0-0-0-----7777777------9-7-|
A|0-0-0-5-0-0-0-0-5-5-7777777----------|
D|0-0-0-0-0-0-0-0--0--7777777----------|

E|----------------------------------------------|
B|----------------------------------------------|
G|-------------------------1414-1212-1111-11-11-|
D|99-99-99-99-99-9-10-1010-1010-1010-1010-10-10-|
A|99-99-99-99-99-9/10-1010-1212-1010-9-9--9--9--|
D|99-99-99-99-99-9/10-1010-1010-1010-1010-10-10-|

E|------------------------------------|
B|------------------------------------|
G|------7---------7-7---------7-6-----|
D|0-0-0-7-0-0-0-0-----5555555-----9-7-|
A|0-0-0-5-0-0-0-0-5-5-5555555---------|
D|0-0-0-0-0-0-0-0--0--5555555---------|

Verse 2
E|9-----------------9----------------------|
B|7-----------------7----------------------|
G|7-----------------7----------------------|
D|-----------------------------------------|
A|--0-0-0-0-0-0-0-0---5-5-5-5-5-5-5-5-5-5--|
D|--0-0-0-0-0-0-0-0---5-5-5-5-5-5-5-5-5-5--|
    *-*-*-*-*-*-*-*     *-*-*-*-*-*-*-*----|

E|9---------------10----9---------------------|
B|7---------------8-----7---------------------|
G|7---------------7-----7---------------------|
D|--------------------------------------------|
A|--0-0-0-0-0-0-0----0----5-5-5-5-5-5-5-5-5-5-|
D|--0-0-0-0-0-0-0----0----5-5-5-5-5-5-5-5-5-5-|
    *-*-*-*-*-*-*----*      *-*-*-*-*-*-*-*---|

E|------------------7----------------------|
B|5-----------------8----------------------|
G|7-----------------7----------------------|
D|-----------------------------------------|
A|--0-0-0-0-0-0-0-0---5-5-5-5-5-5-5-5-5-5--|
D|--0-0-0-0-0-0-0-0---5-5-5-5-5-5-5-5-5-5--|
    *-*-*-*-*-*-*-*     *-*-*-*-*-*-*-*----|

E|----------------------7---------------------|
B|5---------------8-----8---------------------|
G|7---------------7-----7---------------------|
D|--------------------------------------------|
A|--0-0-0-0-0-0-0----0----5-5-5-5-5-5-5-5-5-5-|
D|--0-0-0-0-0-0-0----0----5-5-5-5-5-5-5-5-5-5-|
    *-*-*-*-*-*-*-----------------------------|

Prechorus
E|-------------------|
B|-------------------|
G|------9--7--6------|
D|----7---------9--7-|
A|--7----------------|
D|7------------------|

Chorus
E|----------------------------------------------|
B|----------------------------------------------|
G|-------------------------1414-1212-1111-11-11-|
D|99-99-99-99-99-9-10-1010-1010-1010-1010-10-10-|
A|99-99-99-99-99-9/10-1010-1212-1010-9-9--9--9--|
D|99-99-99-99-99-9/10-1010-1010-1010-1010-10-10-|

E|-------------------------------------|
B|-------------------------------------|
G|------7---------7-7--------9-7-6-----|
D|0-0-0-7-0-0-0-0-----7777777------9-7-|
A|0-0-0-5-0-0-0-0-5-5-7777777----------|
D|0-0-0-0-0-0-0-0--0--7777777----------|

E|----------------------------------------------|
B|----------------------------------------------|
G|-------------------------1414-1212-1111-11-11-|
D|99-99-99-99-99-9-10-1010-1010-1010-1010-10-10-|
A|99-99-99-99-99-9/10-1010-1212-1010-9-9--9--9--|
D|99-99-99-99-99-9/10-1010-1010-1010-1010-10-10-|

E|------------------------------------|
B|------------------------------------|
G|------7---------7-7---------7-6-----|
D|0-0-0-7-0-0-0-0-----5555555-----9-7-|
A|0-0-0-5-0-0-0-0-5-5-5555555---------|
D|0-0-0-0-0-0-0-0--0--5555555---------|

Interlude/Break thing
E|----------------------------------------|
B|----------------------------------------|
G|----------------------------------------|
D|----------------------------------------|
A|----0h5h7-----0h7h9-----0h5p4-----0h4h5-|
D|0-0-------0-0-------0-0-------0-0-------|

E|----------------------------------------|
B|----------------------------------------|
G|----------------------------------------|
D|----------------------------------------|
A|----0h5h7-----0h7h9-----0h5p4-----0h4h5-|
D|5-5-------5-5-------5-5-------5-5-------|

E|----------------------------------------|
B|----------------------------------------|
G|----------------------------------------|
D|----------------------------------------|
A|----0h5h7-----0h7h9-----0h5p4-----0h4h5-|
D|9-9-------9-9-------7-7-------7-7-------|

E|-----------------------------------------|
B|-----------------------------------------|
G|-----------------------------------------|
D|-----------------------------------------|
A|----0h5h7-----0h7h9-----0h5p4---04050709-|
D|5-5-------5-5-------5-5-------0----------|

E|---------------------------------|
B|---------------------------------|
G|------9--7--6------------7-6-----|
D|----7---------9--7-----5-----9-7-|
A|--7------------------5-----------|
D|7------------------5-------------|

E|----------------------------|
B|----------------------------|
G|------9--7--6------------7~-|
D|----7---------9--7-----5----|
A|--7------------------5------|
D|7------------------5--------|

E|9-----------------9----------------------|
B|7-----------------7----------------------|
G|7-----------------7----------------------|
D|-----------------------------------------|
A|--0-0-0-0-0-0-0-0---5-5-5-5-5-5-5-5-5-5--|
D|--0-0-0-0-0-0-0-0---5-5-5-5-5-5-5-5-5-5--|
    *-*-*-*-*-*-*-*     *-*-*-*-*-*-*-*----|

E|9---------------10----9---------------------|
B|7---------------8-----7---------------------|
G|7---------------7-----7---------------------|
D|--------------------------------------------|
A|--0-0-0-0-0-0-0----0----5-5-5-5-5-5-5-5-5-5-|
D|--0-0-0-0-0-0-0----0----5-5-5-5-5-5-5-5-5-5-|
    *-*-*-*-*-*-*----*      *-*-*-*-*-*-*-*---|

E|------------------7---------------------|
B|5-----------------8---------------------|
G|7-----------------7---------------------|
D|----------------------------------------|
A|--0-0-0-0-0-0-0-0---5-5-5-5-5-5-5-5-5-5-|
D|--0-0-0-0-0-0-0-0---5-5-5-5-5-5-5-5-5-5-|


E|----------------------7---------------------|
B|5---------------8-----8---------------------|
G|7---------------7-----7---------------------|
D|--------------------------------------------|
A|--0-0-0-0-0-0-0----0----5-5-5-5-5-5-5-5-5-5-|
D|--0-0-0-0-0-0-0----0----5-5-5-5-5-5-5-5-5-5-|

Chorus
E|----------------------------------------------|
B|----------------------------------------------|
G|-------------------------1414-1212-1111-11-11-|
D|99-99-99-99-99-9-10-1010-1010-1010-1010-10-10-|
A|99-99-99-99-99-9/10-1010-1212-1010-9-9--9--9--|
D|99-99-99-99-99-9/10-1010-1010-1010-1010-10-10-|

E|-------------------------------------|
B|-------------------------------------|
G|------7---------7-7--------9-7-6-----|
D|0-0-0-7-0-0-0-0-----7777777------9-7-|
A|0-0-0-5-0-0-0-0-5-5-7777777----------|
D|0-0-0-0-0-0-0-0--0--7777777----------|

E|----------------------------------------------|
B|----------------------------------------------|
G|-------------------------1414-1212-1111-11-11-|
D|99-99-99-99-99-9-10-1010-1010-1010-1010-10-10-|
A|99-99-99-99-99-9/10-1010-1212-1010-9-9--9--9--|
D|99-99-99-99-99-9/10-1010-1010-1010-1010-10-10-|

E|------------------------------------|
B|------------------------------------|
G|------7---------7-7---------7-6-----|
D|0-0-0-7-0-0-0-0-----5555555-----9-7-|
A|0-0-0-5-0-0-0-0-5-5-5555555---------|
D|0-0-0-0-0-0-0-0--0--5555555---------|

Outro
E|-------------------|
B|-------------------|
G|---------7---------|
D|0--0--0--7-0-----0-|
A|0--0--0--5-0-0-0-0-|
D|0--0--0----0-0-0-0-|
               *-*
Добавлено: 16.06.2012
Другие материалы по этой песне:

Страница создана 03.03.2012
http://primanota.ru/inme/far-reaching-chords.htm
Привет, Гость.
Предлагаем пройти революционный курс по гитаре.
Подарок от PrimaNota.Ru, забирай!