PrimaNota.ru - самый крупный в мире бесплатный архив песенных текстов, аккордов, табулатур и нот


Inme - Beyond - таба, видео

Регистрация Запомнить меня
Войти через:  Facebook Google Twitter Vk Yandex Mail.ru

Inme - Beyond - таба, видео

Печатать
Просмотров: 125
----------------------------------------------------------------------------
                             Beyond - InMe
----------------------------------------------------------------------------
InMe - Beyond
Tabbed by: nirvanaboy183
Email: scottdaniels183@hotmail.com

Tuning: Drop-D   DADGBe

Intro
e|-------------|
B|-------------| 
G|---3b(4)-----| Tremlo pick, slow bend up
D|-------------|
A|-------------|
D|-------------|

Main Riff
E|---------------------------------------------|
B|---------------------------------------------|
G|---------------------------------------------|
D|---------------------------------------------|
A|---8-5--------------------8-5----------------| x2
D|-0----7-5-0-3-0-2-0-3---8----7-5-0-3-0-2-0-3-|

e|-------|
B|-------|
G|-------|
D|-0~----|
A|-0~----|
D|-0~----|

Verse1
e|---14-------14-------15-------18-----------------------------------------|
B|---14-x8----14-x8----15-x8----15-x8--------------------------------------|
G|-------------------------------------------------------------------------|
D|-------------------------------------------------------------------------|
A|-------------------------------------------------------------------------|
D|-------------------------------------------------------------------------|

E|---------------------------------------------|
B|---------------------------------------------|
G|---------------------------------------------|
D|---------------------------------------------|
A|---8-5--------------------8-5----------------|
D|-0----7-5-0-3-0-2-0-3---8----7-5-0-3-0-2--2--|

Chorus
e|----------------------------------------------------------|
B|----------------------------------------------------------|
G|--55555555-55555555--88888888-88883333--------------------|
D|--xxxxxxxx-xxxxxxxx--xxxxxxxx-xxxxxxxx--------------------|
A|--33333333-33333333--66666666-66661111--------------------|
D|----------------------------------------------------------|

e|----------------------------------------------------------|
B|----------------------------------------------------------|
G|--55555555-55555555--88888888-88888888--------------------|
D|--55555555-55555555--88888888-88888888--------------------|
A|--33333333-33333333--66666666-66666666--------------------|
D|----------------------------------------------------------|

Verse2
e|-2-----2-----3-----66665555--2-----2-----3------5*--5*-5*-|
B|-2-x8--2-x8--3-x8--33333333--2-x8--2-x8--3-x8-------------|
G|----------------------------------------------------------|
D|----------------------------------------------------------|
A|----------------------------------------------------------|
D|----------------------------------------------------------|

e|-2-----2-----3-----66665555--2-----2-----3-----3666-3333--|
B|-2-x8--2-x8--3-x8--33333333--2-x8--2-x8--3-x8--3666-3333--|
G|----------------------------------------------------------|
D|----------------------------------------------------------|
A|----------------------------------------------------------|
D|----------------------------------------------------------|

Chorus
e|----------------------------------------------------------|
B|----------------------------------------------------------|
G|--55555555-55555555--88888888-88883333--------------------|
D|--xxxxxxxx-xxxxxxxx--xxxxxxxx-xxxxxxxx--------------------|
A|--33333333-33333333--66666666-66661111--------------------|
D|----------------------------------------------------------|

e|----------------------------------------------------------|
B|----------------------------------------------------------|
G|--55555555-55555555--88888888-8888xxxx--------------------|
D|--55555555-55555555--88888888-8888xxxx--------------------|
A|--33333333-33333333--66666666-6666xxxx--------------------|
D|----------------------------------------------------------|

e|----------------------------------------------------------|
B|----------------------------------------------------------|
G|--55555555-55555555--88888888-88883333--------------------|
D|--xxxxxxxx-xxxxxxxx--xxxxxxxx-xxxxxxxx--------------------|
A|--33333333-33333333--66666666-66661111--------------------|
D|----------------------------------------------------------|

e|----------------------------------------------------------|
B|----------------------------------------------------------|
G|--55555555-55555555--88888888-88888888--------------------|
D|--55555555-55555555--88888888-88888888--------------------|
A|--33333333-33333333--66666666-66666666--------------------|
D|----------------------------------------------------------|

Middle Section
e|----------------------------------------------------------|
B|----------------------------------------------------------|
G|-----777------777-----77-----111111-----111111----1111----|
D|-----xxx------xxx-----xx------x-x-x------x-x-x-----x-x----|
A|-----555------555-----55------9-9-9------9-9-9-----9-9----|
D|-000------000------00-----444--------444--------44--------|

e|----------------------------------------------------------|
B|----------------------------------------------------------|
G|-----777------777-----77-----111111-----111111------------|
D|-----xxx------xxx-----xx------x-x-x------x-x-x----3-3b(4)-|
A|-----555------555-----55------9-9-9------9-9-9------------|
D|-000------000------00-----444--------444------------------|

e|----------------------------------------------------------------------|
B|----------------------------------------------------------------------|
G|----------------------------------------------------------------------|
D|-00000000-00000000-44444444-44444-44-00000000-00000000-44444444-44444-|
A|-00000000-00000000-44444444-44444-44-00000000-00000000-44444444-44444-|
D|-00000000-00000000-44444444-44444-44-00000000-00000000-44444444-44444-|

e|--------------|
B|--------------|
G|--------------|
D|-3-3b(4)---0~-|
A|-----------0~-|
D|-----------0~-|

e|----------------------------------------------------------| Theres quite
B|----------------------------------------------------------| a bit of delay
G|----------h------------------------h----------------------| in this bit so
D|--------10-12-------12-----------13-15-------15-----------| i did the best
A|-----10--------10-------------13--------13----------------| i could.
D|--10-------------10--------13-------------13--------------|

e|----------------------------------------------------------|
B|----------------------------------------------------------|
G|--------h-------------------------------h-----------------|
D|------10-12----13-13-12---------------13-15----15/17-17-15|
A|---10-------------------10---------13--------13-----------|
D|10----------10---------------10/13------------------------|

e|---------------------------------------------------------|
B|---------------------------------------------------------|
G|---------------------------------------------------------|
D|------0------0-------0-------0------------------------\--|
A|----10----10-------13----13------10------dududud------\--|
D|--10--------10---13--------13----10-x8--13------------\--|

Chorus
e|----------------------------------------------------------|
B|----------------------------------------------------------|
G|--55555555-55555555--88888888-88883333--------------------|
D|--xxxxxxxx-xxxxxxxx--xxxxxxxx-xxxxxxxx--------------------|
A|--33333333-33333333--66666666-66661111--------------------|
D|----------------------------------------------------------|

e|----------------------------------------------------------|
B|----------------------------------------------------------|
G|--55555555-55555555--88888888-8888xxxx--------------------|
D|--55555555-55555555--88888888-8888xxxx--------------------|
A|--33333333-33333333--66666666-6666xxxx--------------------|
D|----------------------------------------------------------|

e|----------------------------------------------------------|
B|----------------------------------------------------------|
G|--55555555-55555555--88888888-88883333--------------------|
D|--xxxxxxxx-xxxxxxxx--xxxxxxxx-xxxxxxxx--------------------|
A|--33333333-33333333--66666666-66661111--------------------|
D|----------------------------------------------------------|

e|----------------------------------------------------------|
B|----------------------------------------------------------|
G|--55555555-55555555--88888888-88888888--------------------|
D|--55555555-55555555--88888888-88888888--------------------|
A|--33333333-33333333--66666666-66666666--------------------|
D|----------------------------------------------------------|

Main Riff
E|---------------------------------------------|
B|---------------------------------------------|
G|---------------------------------------------|
D|---------------------------------------------|
A|---8-5--------------------8-5----------------|
D|-0----7-5-0-3-0-2-0-3---8----7-5-0-3-0-2-0-3-|

E|---------------------------------------5*----|
B|---------------------------------------------|
G|---------------------------------------------|
D|---------------------------------------------|
A|---8-5--------------------8-5----------------|
D|-0----7-5-0-3-0-2-0-3---8----7-5-0-3-0-------|

Thats it E-mail me if you've got any comments.


| b  bend up
| /  slide up
| \  slide down
| h  hammer-on
| p  pull-off
| ~  vibrato
| *  harmonic
| x  Mute note
| d  down stroke
| u  up stroke
============================================================================
Добавлено: 14.06.2012
Другие материалы по этой песне:
  • Аккорды и текст

Страница создана 14.06.2012
http://primanota.ru/inme/beyond-chords.htm
Привет, Гость.
Предлагаем пройти революционный курс по гитаре.
Подарок от PrimaNota.Ru, забирай!