PrimaNota.ru - самый крупный в мире бесплатный архив песенных текстов, аккордов, табулатур и нот


Inme - Belief Revival - текст песни, таба, видео

Регистрация Запомнить меня
Войти через:  Facebook Google Twitter Vk Yandex Mail.ru

Inme - Belief Revival - текст песни, таба, видео

Печатать
Просмотров: 124
Song: Belief Revival
Band: InME
Album: Herald Moth


Intro

Dave:
      NH    NH    NH    NH   NH     NH    NH    NH
e|--------------------------------------------------------------|
b|--------------------------------------------------------------|
g|--------------------------------------------------------------|
d|------------------------------------------------------5/7b----|
a|-00----00----00----00----00----00----00----00-----5-7------8--|
D|-00-5*-00-5*-00-5*-00-5*-00-7*-00-7*-00-7*-00-7*--------------|
  
      NH    NH    NH    NH   NH     NH    NH    NH
e|--------------------------------------------------------------|
b|--------------------------------------------------------------|
g|--------------------------------------------------------------|
d|--------------------------------------------------------------|
a|-00----00----00----00----00----00----00----00-----------------|
D|-00-5*-00-5*-00-5*-00-5*-00-7*-00-7*-00-7*-00-7*--------------|


Ben:
e|-16h17p 17b--------------------10-9--------------------------|
b|------------18b-17-15----------------7--12-10----------------|
g|----------------------18p17-14-----------------12-9-11/14b---|
d|-------------------------------------------------------------|
a|-------------------------------------------------------------|
D|-------------------------------------------------------------|


Verse
Dave:
                                                                      NH
e|-------------------------------------------------------------------------|
b|-------------------------------------------------------------------------|
g|-------------------------------------------------------------------------|
d|-------------------------8--------6--------------------------------------|
a|-0-0-0-0-0-0-0-0---8-10----10-6-8---8-5--0-0-0-0-0-0-0-0-00-00-00-00-----|
D|-0-0-0-0-0-0-0-0------------------------0-0-0-0-0-0-0-0-00-00-00-00-5*---|
     . . .   . . .                          . . .   . . . .  .  .  .

Ben:
e|-------------------------------------------------------------------------|
b|-12-10h12p----8-10-12----------------------------12-10h12----8-10-12-----|
g|-----------12---------------------------------------------12-------------|
d|-----------------------------10---------8--------------------------------|
a|-----------------------10-12----12-8-10---10-7---------------------------|
D|-------------------------------------------------------------------------|

e|---------------|
b|-10-8/7-7/3----|
g|---------------|
d|---------------|
a|---------------|
D|---------------|


Chorus
Dave:
e|---------------------------------------------------|
b|---------------------------------------------------|
g|--7--9--5------------------------------------------|
d|--7--9--5--5--7------------------------------------|
a|--5--7--3--5--7----ALL STRUMMED--------------------|
D|-----------5--7------------------------------------|

Ben:
e|-------------------------|-------------------------|---------------------|
b|-8-8/10-10/12---------10-|-8-8/10-10/12---------10-|--7-8-10-8-----------|
g|--------------12-11-9----|--------------12-11-9----|-----------9-9-7-7---|
d|-------------------------|-------------------------|---------------------|
a|-------------------------|-------------------------|---------------------|
D|-------------------------|-------------------------|---------------------|

e|------10--------|---------------------|------10--------|
b|--7-8----8-7-5--|--7-8-10-8-----------|--7-8----8-7-5--|
g|----------------|-----------9-9-7-7---|----------------|
d|----------------|---------------------|----------------|
a|----------------|---------------------|----------------|
D|----------------|---------------------|----------------|


Prevere
Dave:
e|-----------------------------------------------------|
b|-----------------------------------------------------|
g|-----------------------------------------------------|
d|-----------------------------------------------------|
a|-0-0-0-0-000-0-0-0-0-000-0-0-0-0-000-0-0-0-0-000-----|
D|-0-0-0-0-000-0-0-0-0-000-0-0-0-0-000-0-0-0-0-000-----|
   . . . . ... . . . . ... . . . . ... . . . . ...

Ben:
e|-10-9--------------------------|
b|------7--12-10-----------------|
g|---------------12-9------------|
d|---------------------11/14b----|
a|-------------------------------|
D|-------------------------------|



Verse
Dave:
                                                                      NH
e|-------------------------------------------------------------------------|
b|-------------------------------------------------------------------------|
g|-------------------------------------------------------------------------|
d|-------------------------8--------6--------------------------------------|
a|-0-0-0-0-0-0-0-0---8-10---10-6-8---8-5--0-0-0-0-0-0-0-0-00-00-00-00------|
D|-0-0-0-0-0-0-0-0------------------------0-0-0-0-0-0-0-0-00-00-00-00-5*---|
     . . .   . . .                          . . .   . . . .  .  .  . 

e|-----------------------|---------------------------|----------------------|
b|-12-10h12p----8-10-12--|---------------------------|-12-10h12----8-10-12--|
g|-----------12----------|---------------------------|-----------12---------|
d|-----------------------|--------10---------8-------|----------------------|
a|-----------------------|--10-12----12-8-10---10-7--|----------------------|
D|-----------------------|---------------------------|----------------------|

e|---------------|
b|-10-8/7-5/3----|
g|---------------|
d|---------------|
a|---------------|
D|---------------|


Chorus
Dave:
e|---------------------------------------------------|
b|---------------------------------------------------|
g|--7--9--5------------------------------------------|
d|--7--9--5--5--7------------------------------------|
a|--5--7--3--5--7----ALL STRUMMED--------------------|
D|-----------5--7------------------------------------|

Ben:
e|-------------------------|-------------------------|---------------------|
b|-8-8/10-10/12---------10-|-8-8/10-10/12---------10-|--7-8-10-8-----------|
g|--------------12-11-9----|--------------12-11-9----|-----------9-9-7-7---|
d|-------------------------|-------------------------|---------------------|
a|-------------------------|-------------------------|---------------------|
D|-------------------------|-------------------------|---------------------|

e|------10--------|---------------------|------10--------|
b|--7-8----8-7-5--|--7-8-10-8-----------|--7-8----8-7-5--|
g|----------------|-----------9-9-7-7---|----------------|
d|----------------|---------------------|----------------|
a|----------------|---------------------|----------------|
D|----------------|---------------------|----------------|


Breakdown
e|-----------------------------------------------------|
b|-----------------------------------------------------|
g|-----------------------------------------------------|
d|-----------------------------------------------------|
a|-0-0-0-0-000-0-0-0-0-000-0-0-0-0-000-0-0-0-0-000-----|
D|-0-0-0-0-000-0-0-0-0-000-0-0-0-0-000-0-0-0-0-000-----|
   . . . . ... . . . . ...         ...         ...


Solo

    T       T       T       T       T       T       T       T
e|----------------------------------------------------------------------|
b|--12-5h7p-12-3h5p-12-5h7p-12-3h5p-12-5h7p-12-3h5p-14-5h7p-14-3h5p-----|
g|----------------------------------------------------------------------|
d|----------------------------------------------------------------------|
a|----------------------------------------------------------------------|
D|----------------------------------------------------------------------|
   
    T       T       T       T       T       T       T       T
e|----------------------------------------------------------------------|
b|--14-5h7p-14-3h5p-14-5h7p-14-3h5p-16-7h9p-16-5h7p-16-7h9p-16-5h7p-----|
g|----------------------------------------------------------------------|
d|----------------------------------------------------------------------|
a|----------------------------------------------------------------------|
D|----------------------------------------------------------------------|

   T       T       T        T       T        T       T        T
e|----------------------------------------------------------------------|
b|-16-7h9p-16-5h7p-18-10h12p-18-8h10p-18-10h12p-18-8h10p-18-10h12p------|
g|----------------------------------------------------------------------|
d|----------------------------------------------------------------------|
a|----------------------------------------------------------------------|
D|----------------------------------------------------------------------|

   T         T         T         T         T         T        T
e|----------18-12h14p-18-10h12p-18-12h14p-18-10h12p-18-12h14p-18-10h12p-|
b|-18-8h10p-------------------------------------------------------------|
g|----------------------------------------------------------------------|
d|----------------------------------------------------------------------|
a|----------------------------------------------------------------------|
D|----------------------------------------------------------------------|

   T         T        T         T        T         T
e|-16-10h12p-18-8h10p-16-10h12p-18-8h10p-16-10h12p-18-8h10p-------------|
b|----------------------------------------------------------------------|
g|----------------------------------------------------------------------|
d|----------------------------------------------------------------------|
a|----------------------------------------------------------------------|
D|----------------------------------------------------------------------|

   T        T       T        T       T        T       T        T
e|-14-8h10p-14-6h8p-14-8h10p-14-6h8p-14-8h10p-14-6h8p-15-7h10p-15-7h10p-|
b|----------------------------------------------------------------------|
g|----------------------------------------------------------------------|
d|----------------------------------------------------------------------|
a|----------------------------------------------------------------------|
D|----------------------------------------------------------------------|

   T        T       T        T       T        T        T        T
e|----------------------------------------------------------------------|
b|-15-7h10p-15-7h10p----------------------------------------------------|
g|-------------------15-7h10p-15-7h10p-----------------15-7h10p-15-7h10p|
d|------------------------------------15-7h10p-15-7h10p-----------------|
a|----------------------------------------------------------------------|
D|----------------------------------------------------------------------|
    T       T       T       T       T       T       T       T
e|----------------------------------------------------------------------|
b|--12-5h7p-12-3h5p-12-5h7p-12-3h5p-12-5h7p-12-3h5p-14-5h7p-14-3h5p-----|
g|----------------------------------------------------------------------|
d|----------------------------------------------------------------------|
a|----------------------------------------------------------------------|
D|----------------------------------------------------------------------|
   
    T       T       T       T       T       T       T       T
e|----------------------------------------------------------------------|
b|--14-5h7p-14-3h5p-14-5h7p-14-3h5p-16-7h9p-16-5h7p-16-7h9p-16-5h7p-----|
g|----------------------------------------------------------------------|
d|----------------------------------------------------------------------|
a|----------------------------------------------------------------------|
D|----------------------------------------------------------------------|

   T       T       T        T       T        T       T        T
e|----------------------------------------------------------------------|
b|-16-7h9p-16-5h7p-18-10h12p-18-8h10p-18-10h12p-18-8h10p-18-10h12p------|
g|----------------------------------------------------------------------|
d|----------------------------------------------------------------------|
a|----------------------------------------------------------------------|
D|----------------------------------------------------------------------|

   T         T         T         T         T         T        T
e|----------18-12h14p-16-10h12p-18-12h14p-16-10h12p-18-12h14p-16-10h12p-|
b|-18-8h10p-------------------------------------------------------------|
g|----------------------------------------------------------------------|
d|----------------------------------------------------------------------|
a|----------------------------------------------------------------------|
D|----------------------------------------------------------------------|

   T         T        T         T        T         T
e|-16-10h12p-18-8h10p-16-10h12p-18-8h10p-16-10h12p-18-8h10p-------------|
b|----------------------------------------------------------------------|
g|----------------------------------------------------------------------|
d|----------------------------------------------------------------------|
a|----------------------------------------------------------------------|
D|----------------------------------------------------------------------|

   T        T       T        T       T        T       T        T
e|-14-8h10p-14-6h8p-14-8h10p-14-6h8p-14-8h10p-14-6h8p-15-7h10p-15-7h10p-|
b|----------------------------------------------------------------------|
g|----------------------------------------------------------------------|
d|----------------------------------------------------------------------|
a|----------------------------------------------------------------------|
D|----------------------------------------------------------------------|

   T        T        T        T       
e|----------------------------------------|
b|-15-7h10p-15-7h10p----------------------|
g|-------------------15-7h10p-15-7h10p----|
d|----------------------------------------|
a|----------------------------------------|
D|----------------------------------------|



Pre-Chorus
Dave:
e|------------------------------------------------------------------------|
b|------------------------------------------------------------------------|
g|------------------------------------------------------------------------|
d|------------------------10---------8------------------------------------|
a|-0-0-0-0-0-0-0-0--10-12----12-8-10---10-7--0-0-0-0-0-0-0-0--7-5-4-2-0---|
D|-0-0-0-0-0-0-0-0---------------------------0-0-0-0-0-0-0-0--7-5-4-2-0---|
     . . .   . . .                             . . .   . . .
 
Ben:
e|-15b-11-12bb------------------------------------------------------------|
b|--------------------------------------12b-10-8-------10-8/7-5/3---------|
g|-------------------10---------8----------------10-9---------------------|
d|-------------10-12----12-8-10---10-7------------------------------------|
a|------------------------------------------------------------------------|
D|------------------------------------------------------------------------|



Chorus
Dave:
e|---------------------------------------------------|
b|---------------------------------------------------|
g|--7--9--5------------------------------------------|
d|--7--9--5--5--7------------------------------------|
a|--5--7--3--5--7---------ALL STRUMMED---------------|
D|-----------5--7------------------------------------|

Ben:
e|-------------------------|-------------------------|---------------------|
b|-8-8/10-10/12---------10-|-8-8/10-10/12---------10-|--7-8-10-8-----------|
g|--------------12-11-9----|--------------12-11-9----|-----------9-9-7-7---|
d|-------------------------|-------------------------|---------------------|
a|-------------------------|-------------------------|---------------------|
D|-------------------------|-------------------------|---------------------|

e|------10------|-------------------|------10--------|
b|--7-8----8----|--7-8-10-----------|--7-8----8------|
g|-----------9--|---------9-9-7-7---|-----------9----|
d|--------------|-------------------|----------------|
a|--------------|-------------------|----------------|
D|--------------|-------------------|----------------|


Outro
e|-15h17p 17b--------------------10-9--------------------------|
b|------------18b-17-15----------------7--12-10----------------|
g|---------------------18p17-14-----------------12-9/11bb/-----|
d|-------------------------------------------------------------|
a|-------------------------------------------------------------|
D|-------------------------------------------------------------|
Добавлено: 13.04.2012
Другие материалы по этой песне:
  • Аккорды и текст

Страница создана 13.04.2012
http://primanota.ru/inme/belief-revival-chords.htm
Привет, Гость.
Предлагаем пройти революционный курс по гитаре.
Подарок от PrimaNota.Ru, забирай!