PrimaNota.ru - самый крупный в мире бесплатный архив песенных текстов, аккордов, табулатур и нот


Iniquity - Prophecy Of The Dying Watcher - таба, видео

Регистрация Запомнить меня
Войти через:  Facebook Google Twitter Vk Yandex Mail.ru

Iniquity - Prophecy Of The Dying Watcher - таба, видео

Печатать
Просмотров: 61
Album: (INIQUITY BLOODY INIQUITY)
Song: (PROPHECY OF THE DYING WATCHER)




.    -   palm mute          / - slide up to
\    -   slide down to      ~ - vibrato
h    -   hammer on          b - Bend
p    -   pull off           Suffixes for bend
t    -   tap                f - full bend     h - half bend
ph   -   pinched harmonic   q - quarter bend t - tap bend
*    -   see comment        ^ - Hold bend     r release bend
x    -   Stuccatto          ~ - vibrato bend
,    -   slight palm mute   () - ghost note, sustained note
"    -   tremolo note       <> - Trill

Tuning B E A D F# B


 Riff 1A                x3         Riff 1B
|--------------------------|--------------------------------------|
|--------------------------|--------------------------------------|
|--------------------------|--------------------------------------|
|--------------------------|--------------------------------------|
|-11-887-10-778-11---2-2-2-|-11-887-10-777---10h13p10--9h12p9-----|
|--------------------0-0-0-|--------------------------------------|
  . ... . ... .      . . .    . ... . ...

 Riff 1C
|---------------------------|------------------------------------------|
|---------------------------|------------------------------------------|
|---------------------------|------------------------------------------|
|---------------------------|------------------------------14ph~~------|
|-11-887-10-778-11----2-2-2-|-11-887-10-777---14141414-----------------|
|---------------------0-0-0-|------------------------------------------|
  . ... . ... .       . . .    . ... . ...    ........

 Riff 1D
|--------------------------|-------------------------------------------|
|--------------------------|-------------------------------------------|
|--------------------------|-------------------------------------------|
|--------------------------|-------------------------------------------|
|-11-887-10-778-11---2---2-|-11-887---10-777--10h13p10--9h12p9---------|
|--------------------0---0-|-------------------------------------------|
  . ... . ...        .   .    . ...    . ...


 Riff 2 x2
|-----------------------------------------------------------------------------|
|-----------------------------------------------------------------------------|
|-----------------------------------------------------------------------------|
|-----------------------------------------------------------------------------|
|-11-8-7-10-8-7-6-9-7-6-5-8-11-8-11-8--11-8-7-10-8-7-6-9-7-6-5--8--11-9-8-11--|
|-----------------------------------------------------------------------------|
   . . . . . . . . . . . . . . . .      . . . . . . . . . . . .     . . . .



 Riff 3         x2 (ending shorter on second time)
|---------------------------------------------------|---|---------------------------|
|---------------------------------------------------|---|---------------------------|
|---------------------------------------------------|---|---------------------------|
|---------------------------------------------------|---|---------------------------|
|------------------------------------------222222-2-|-2-|---------------2--2-|
|-0-0-0-0-0-0-0-0-0-0-0-0-0-0-0-0-0-0-0-0---------0-|-0-|-000--000--000-0---------0-|
  . . . . . . . . . . . . . . . . . . . . ......          ... ... ...

 Riff 4A   1, 3          2                 4
|------------------|---------------------|------------------------------------|
|------------------|---------------------|------------------------------------|
|------------------|---------------------|------------------------------------|
|---2---4--3---3/4-|-----------------5ph-|--------------------------9ph-------|
|---2---2--1---1/2-|-9-7-6-5-6--4b-------|--8-8-8-8-8-8-8-8--8h11p8-----------|
|-0---0------0-----|-7-5-4-3-4-----0-----|------------------------------------|
  .   . .    .       . . . . .     .        . . . . . . . .

 Riff 4B    1, 3          2                4
|------------------|---------------------|------------------------------------|
|------------------|---------------------|------------------------------------|
|------------------|---------------------|------------------------------------|
|---2---4--3---3/4-|-----------------5ph-|------------------------------------|
|---2---2--1---1/2-|-9-7-6-5-6--4b-------|--8-8-8-8-8-8-8-8--8h11p8--7h10p7---|
|-0---0------0-----|-7-5-4-3-4-----0-----|------------------------------------|
  .   . .    .       . . . . .     .        . . . . . . . .

 Riff 5
|-----------------------------|
|-----------------------------|
|-----------------------------|
|-----------------------4-----|
|-2-(2)--3-2--3-2-------4--3~-|
|-0-(0)--1-0--1-0---0-0-------|
                    . .

Riff 4B again


 Riff 4C      1,3                 2
|------------------|---------------------|
|------------------|---------------------|
|------------------|---------------------|
|---2---4--3---3/4-|-----------------5ph-|
|---2---2--1---1/2-|-9-7-6-5-6--4b-------|
|-0---0------0-----|-7-5-4-3-4-----0-----|
  .   . .    .       . . . . .     .

 Riff 6                    x2
|-----------------------------|
|-----------------------------|
|-----------------------------|
|-----------------------------|
|-----------------------2-2-2-|
|-0-0000-0-0000-0-0000--0-0-0-|
  . .... . .... . .... . . .

 Riff 7
|-------------------------------|
|-------------------------------|
|-------------------------------|
|-------------------------------|
|-------6-5-3-2---3-2--2ph~~~~--|
|-0-2-3---------5---------------|


Riff 5 x2 again


 Riff 8
|--------------------------|
|--------------------------|
|---------------------7ph~-|
|-------------7-6-4-3------|
|-5-6-3-2-3-6--------------|
|--------------------------|
  . . . . . . . . . .

Riff 5 X2 Again

(Synth)

 Riff 9                    x2
|---------------------------------------------------------------|
|---------------------------------------------------------------|
|---------------------------------------------------------------|
|--------5-(5)---------------7ph---------5-(5)-----------|
|-2-(2)--3-(3)--2-(2)--3--6-------2-(2)--3-(3)--2-(2)-----------|
|-0-(0)---------0-(0)-------------0-(0)---------0-(0)-----------|


             Riff 9       x2
|------------||----------------------------------------------------------|
|------------||----------------------------------------------------------|
|||----------------------------------------------------------|
|------------||--------5-5-6----------------7ph-----------5-5-6----------|
|------------||-2------3------2------3--6----------2------3------2-------|
|--12\\\\\\--||-0-2-0---------0-2-0----------------0-2-0---------0-2-0---|


Riff   4A     (slowly, then gradually increase speed)
Riff   4B
Riff   4C
Riff   6 x2
Riff   7
Riff   6 x2
Riff   8
Riff   6 x2



 Riff 10   x4      1, 3, 5, 7, 9, 11       2, 6, 10            4, 8, 12
|---------------------------------------|---------------|-----------------|
|---------------------------------------|---------------|-----------------|
|---------------------------------------|---------------|-----------------|
|----------------------------------7--9-|-10--10--13--9-|-10--10--9-------|
|-2-(2)--/8-7h8p7--/12-10-8/10~~~--5--7-|-8---8---11--7-|-8---8---7-------|
|-0-(0)---------------------------------|---------------|-----------------|
                                   . .

 Riff 11   x2
|------------------------------------------------------------------|
|------------------------------------------------------------------|
|------------------------------------------------------------------|
|------------------------------------------------------------------|
|------2-------5-55555--8-8-7ph-----2-------2--------------5-7-----|
|-0000-0-0000-----------------------0-0000--0-0000---0-000-3-5-3ph-|
  ....   ....    .....                ....    ....   . ... . .

|------------------------------------------------------------------|
|------------------------------------------------------------------|
|----------------------------------------9h10p9--10ph--------------|
|--------------------------------------8---------------------------|
|-2------2-------5-55555--8-8-7ph----5----------------5-----7-5-3--|
|-0-0000-0-0000--------------------4------------------3-333-5-3-1--|
    ....   ....    .....           . . .                      ... . . .

Riff 5


 Riff 12
|--------------------------------------|
|--------------------------------------|
|--------------------------------------|
|--------------------------------------|
|----------2-5-3---------------5-6-5-3-|
|-00000000-0-3-1-1ph--00000000-3-4-3-1-|
  ........ . . .      ........ . . . .


|--------------------------------------------|
|--------------------------------------------|
|--------------------------------------------|
|--------------------------------------------|
|----------2-5-3-----------------------------|
|-00000000-0-3-1-1ph---44444444-2h4p2-1h3p1--|
   ........ . . .       ........



 Riff 13
|-----------------------------|
|-----------------------------|
|-----------------------------|
|-2-----2-----2---2--------2--|
|-2-----2-----2---2--------2--|
|---000---000---0---00-0-0----|
    ...   ...   .   .. . .


Riff 12
Riff 13

 Riff 14
|------------------|------------------------|
|------------------|------------------------|
|------------------|------------------------|
|-----4------------|------------------------|
|-3-5-2------------|------------------------|
|-1-3---0--33-2222-|--44444444-3h4p3-2h3p2--|
  . .   .     ....    ........

Riff 13
Riff 14
Riff 13

< END >
Добавлено: 11.08.2013
Другие материалы по этой песне:

Страница создана 08.07.2013
http://primanota.ru/iniquity/prophecy-of-the-dying-watcher-chords.htm
Привет, Гость.
Предлагаем пройти революционный курс по гитаре.
Подарок от PrimaNota.Ru, забирай!