PrimaNota.ru - самый крупный в мире бесплатный архив песенных текстов, аккордов, табулатур и нот


Inhale Exhale - Your Walls My Words - таба, видео

Регистрация Запомнить меня
Войти через:  Facebook Google Twitter Vk Yandex Mail.ru

Inhale Exhale - Your Walls My Words - таба, видео

Печатать
Просмотров: 107
e--------------------------------------------------|
B--------------------------------------------------|
G--12--12----------12--12--------------------------|
D-----------11--12----------11--12-----------------|2x
A-----------------------------------12-------------|
E--------------------------------------------------|


Chorus
e--------------------------------------------------|
B--------------------------------------------------|
G-11-11-11-11-11-11--7--7--7--7--9--9--9--9--9--9--|
D--------------------------------------------------|
A--9--9--9--9--9--9--5--5--5--5--7--7--7--7--7--7--|
E--------------------------------------------------|

                                                          2X
e---------------------------------------------------|
B---------------------------------------------------|
G--6--6--6--6---------------------------------------|
D---------------------------------------------------|
A--4--4--4--4---------------------------------------|
E---------------------------------------------------|

e---------------------------------------------------|
B---------------------------------------------------|
G---------------------------------------------------| i think u do that 8x???
D----------12h--13h--12h----------------------------|
A--14-14--------------------------------------------|
E---------------------------------------------------|

e-------------------------------------------------------|
B-------------------------------------------------------|
G-------------12--12--12--------------------------------| 2x
D------------------------------------13--13--13---------|
A--13--13--13--------------11-11-11--------------8--11--|
E-------------------------------------------------------|
Добавлено: 19.07.2012
Другие материалы по этой песне:
  • Аккорды и текст

Страница создана 19.07.2012
http://primanota.ru/inhale-exhale/your-walls-my-words-chords.htm
Привет, Гость.
Предлагаем пройти революционный курс по гитаре.
Подарок от PrimaNota.Ru, забирай!