PrimaNota.ru - самый крупный в мире бесплатный архив песенных текстов, аккордов, табулатур и нот


Ingested - Stillborn - текст песни, таба, видео

Регистрация Запомнить меня
Войти через:  Facebook Google Twitter Vk Yandex Mail.ru

Ingested - Stillborn - текст песни, таба, видео

Печатать
Просмотров: 218
       Tabbed by DOCTORxPROCTOR
       H                       Q     Q        H         S  S  S  S  E   E
B ||--------------------------------------|--------------------------------|
F#||--------------------------------------|--------------------------------|
D ||--------------------------------------|--------------------------------|
A ||--10-----------------------9----12----|--13--------13-12-13-15-16--15--|
E ||--------------------------------------|--------------------------------|
A ||--------------------------------------|--------------------------------|


       I'm too tired to understand this part but it's
   E  T  T   T  T   E  T  T   T  T
-------------------------------------|
-------------------------------------|
------8h-12p-8h-12-----8h-12p-8h-12--|
--10----------------10---------------|
-------------------------------------|
-------------------------------------|


pretty much this idea
   E  T   T   T   T   E   T   T   T   T
------------------------------------------|
------------------------------------------|
------10h-14p-10h-14------10h-14p-10h-14--|
--12------------------12------------------|
------------------------------------------|
------------------------------------------|

E   T  T   T  T   E   T  T   T  T
--------------------------------------

----9h-13p-9h-13------9h-13p-9h-13----|
11----------------11------------------|
--------------------------------------|
--------------------------------------|
                                           PH
   Q.     S  S  E   E.   E   S     Q       Q      S  S  S  S  S  S  S  S
-------------------------------|-----------------------------------------|
-------------------------------|-----------------------------------------|
-------------------------------|-----------------------------------------|
--10------9-10-13--12---10--12-|--13------13~----13-12-13-15-13-12-13-12-|
-------------------------------|-----------------------------------------|
-------------------------------|-----------------------------------------|


                                               Tabbed by DOCTORxPROCTOR
                                             PH
   Q.     S  S  Q     Q        H.            Q
---------------------------|-----------------------------------------||
---------------------------|-----------------------------------------||
---------------------------|-----------------------------------------||
--10------9-10-12----13----|-----------------10~---------------------||
---------------------------|--11-------------------------------------||
---------------------------|-----------------------------------------||


Duration Legend
---------------
W - whole
H - half
Q - quarter
E - 8th
S - 16th
T - 32nd
X - 64th
. - dotted note

Tablature Legend
----------------
PH - pitch harmonic
h - hammer on
p - pull off
~ - Vibrato
Добавлено: 24.03.2012
Вам также может быть интересно:
Другие материалы по этой песне:

Страница создана 24.03.2012
http://primanota.ru/ingested/stillborn-chords.htm
Привет, Гость.
Предлагаем пройти революционный курс по гитаре.
Подарок от PrimaNota.Ru, забирай!