PrimaNota.ru - самый крупный в мире бесплатный архив песенных текстов, аккордов, табулатур и нот


Ingested - Skinned And Fucked - текст песни, таба, видео

Регистрация Запомнить меня
Войти через:  Facebook Google Twitter Vk Yandex Mail.ru

Ingested - Skinned And Fucked - текст песни, таба, видео

Печатать
Просмотров: 591
Skinned and Fucked
by Ingested
All for music and tabbing out goes to Ingested.

Both guitars tuned to Drop A, Six String - A, E, A, D, F#, B


Guitar 1 = Sean Hynes

   0:00 - 0:02
B |---------------------------|
F#|---------------------------|
D |---------------------------|
A |---------------------------|
E |-2-1-2-4-2-1-2-1-2-4-2-1-2-|
A |-4-3-4-6-4-3-4-3-4-6-4-3-4-|
    . . . . . . . . . . . . .

   -SNARE-

   0:03 - 0:14 
B |-------------------------------|
F#|-------------------------------|
D |-------------------------------|(x4)
A |-------------------------------|
E |-2-1-2-4-2-1-2-1-2-4-2-1-3t-4t-|
A |-4-3-4-6-4-3-4-3-4-6-4-3-------|
    . . . . . . . . . . . .

   0:14 - 0:26
B |-------------------------------------------------------------|
F#|-------------------------------------------------------------|
D |-------------------------------------------------------------|
A |-------------------------------------------------------------|
E |-2-1-2-4-2-1-2-1-2-4-2-1-2-1---2-1-2-4-2-1-2-1-2-4-2-1-3t-4t-|
A |-2-1-2-4-2-1-2-1-2-4-2-1-2-1---2-1-2-4-2-1-2-1-2-4-2-1-------|
    . . . . . . . . . . . . . .   . . . . . . . . . . . .

B |-----------------------------------------------------------------------|
F#|-----------------------------------------------------------------------|
D |-----------------------------------------------------------------------|
A |-----------------------------------------------------------------------|
E |-2-1-2-4-2-1-2-1-2-4-2-1-2-1---2-1-2-4-2-1-2-1-2-4-2-1-3h6p3h6-4h7p4h7-|
A |-2-1-2-4-2-1-2-1-2-4-2-1-2-1---2-1-2-4-2-1-2-1-2-4-2-1-----------------|
    . . . . . . . . . . . . . .   . . . . . . . . . . . .

   0:26 - 0:43
B |-----------------------------------------------------------------------|
F#|-----------------------------------------------------------------------|
D |-----------------------------------------------------------------------|(x2)
A |-----------------------------------------------------------------------|
E |-3t-4t-3t----------------------0-4-3t-4t-3t----------------------------|
A |----------4t-3t-4t/7t-6t-7t-6t-0-4----------4t-3t-4t/7t-6t-7t-6t-0t-4t-|
                                  . .

B |-----------------------------------|
F#|-----------------------------------|
D |-----------------------------------|
A |-----------------------------------|
E |-3t-4t-3t----------------------0-4-|
A |----------4t-3t-4t/7t-6t-7t-6t-0-4-|
                                  . .

   0:43 - 0:57
B |-----------------------------------|
F#|-----------------------------------|
D |-----------------------------------|(x3)
A |-----------------------------------|
E |-2-1-2-1-2-6-6-6--2-1-2-1----------|
A |-3-2-3-2-3-5-5-5--3-2-3-2-0t-1t-4t-|
    . . . . .        . . . .

B |--------------------------------|
F#|--------------------------------|
D |--------------------------------|
A |--------------------------------|
E |-2-1-2-1-2-6-6-6--2-1-2-1-0-1-4-|
A |-3-2-3-2-3-5-5-5--3-2-3-2-0-1-4-|
    . . . . .        . . . . . . .

   0:57 - 1:11
B |-------------------------------------|
F#|-------------------------------------|
D |-------------------------------------|(x2)
A |-------------------------------------|
E |-3t-4t-3t----------------------------|
A |----------4t-3t-4t/7t-6t-7t-6t-0t-4t-|


B |---------------------------------------|
F#|---------------------------------------|
D |---------------------------------------|(x2)
A |---------------------------------------|
E |-3t-4t-3t------------------------------|
A |----------4t-3t-4t/10t-9t-10t-9t-0t-4t-|


(x2) 1:11 - 1:30
|-------------------------------------------------------------------------|
|-------------------------------------------------------------------------|
|-------------------------------------------------------------------------|
|-----7t-6t------7t-6t-4t-6t-4t\3t-----7t-6t------7t-6t-4t-6t-4t\3t/4t\3t-|
|-6-7-------77-6-------------------6-7-------77-6-------------------------|
|-6-7-------77-6-------------------6-7-------77-6-------------------------|
  . .       .. .                   . .       .. .

|--------------------------------------------------------------------------|
|--------------------------------------------------------------------------|
|--------------------------------------------------------------------------|
|-----7t-6t------7t-6t-4t-6t-4t\3t-----10t-9t------10t-9t-7t-9t-7t\6t/7t\6t|
|-6-7-------77-6-------------------6-7--------77-6-------------------------|
|-6-7-------77-6-------------------6-7--------77-6-------------------------|
  . .       .. .                   . .        .. .

   1:30 - 1:41
B |--------------------------|
F#|--------------------------|
D |--------------------------|(x4)
A |--------------------------|
E |-6-7--4-6-4--3-4-3--1-3-1-|
A |-6-7--4-6-4--3-4-3--1-3-1-|
    . .  . . .  . . .  . . .

   1:41 - 1:57
B |-----------------------------------|
F#|-----------------------------------|
D |-----------------------------------|(x4)
A |-----------------------------------|
E |-6-7---4-6-4---3-4-3---1-3---------|
A |-6-7---4-6-4---3-4-3---1-3-1h4p1h4-|
    . .   . . .   . . .   . .

   1:57 - 2:09 
B |-------------------------------|
F#|-------------------------------|
D |-------------------------------|(x2)
A |-------------------------------|
E |-2-1-2-4-2-1-2-1-2-4-2-1-3t-4t-|
A |-4-3-4-6-4-3-4-3-4-6-4-3-------|
    . . . . . . . . . . . .

B |-------------------------------|
F#|-------------------------------|
D |-------------------------------|(x2)
A |-------------------------------|
E |-2-1-2-4-2-1-2-1-2-4-2-1-6t-7t-|
A |-4-3-4-6-4-3-4-3-4-6-4-3-------|
    . . . . . . . . . . . .

   2:09
B |---|
F#|---|
D |---|
A |---|
E |-4-|
A |-6-|
    .

   2:12
B |---|
F#|---|
D |---|
A |---|
E |-4-|
A |-6-|
    .  

   2:15 - 2:22
B |--------------------------------------------------------------------|
F#|--------------------------------------------------------------------|
D |--------------------------------------------------------------------|
A |------------------1-----1-----1---------------------1-----1-----1---|
E |----4-3--3-1--2*--1-2-2-1-2-2-1-2---4--3--3--1--2*--1-2-2-1-2-2-1-2-|
A |-12\6-5--3-1--------2-2---2-2---2---6--5--3--1--------2-2---2-2---2-|
       . .  . .        . .   . .   .   .  .  .  .        . .   . .   .

   2:22 - 2:28
B |---------------------------------------------------------|
F#|---------------------------------------------------------|
D |---------------------------------------------------------|
A |----------------1-----1-----1--------------------1-----1-|
E |-44-33-1--22-0--1-2-2-1-2-2-1-2---44-33-1--22-0--1-2-2-1-|
A |-66-55-3--22-0----2-2---2-2---2---66-55-3--22-0----2-2---|
    .. .. .  .. .    . .   . .   .   .. .. .  .. .    . .

   2:28 - 2:40
B |--------------------------|
F#|--------------------------|
D |--------------------------|(x3)
A |-1------------------------|
E |-1--2-1-2-1-0--4--1--2--1-|
A |----2-1-2-1-0--4--1--2--1-|
       . . . . .  .  .  .  .

B |-----------------|
F#|-----------------|
D |-----------------|
A |-1---------------|
E |-1--2-1-2-1-0--4-|
A |----2-1-2-1-0--4-|
       . . . . .  .

   2:42 - 2:56
B |--------------------------|
F#|--------------------------|
D |--------------------------|(x4)
A |-1------------------------|
E |-1--2-1-2-1-0--4--1--2--1-|
A |----2-1-2-1-0--4--1--2--1-|
       . . . . .  .  .  .  .

   2:56
B |----|
F#|----|
D |----|
A |----|
E |-1~-|
A |-1~-|

   3:02 - 3:16
B |---------|
F#|---------|
D |---------|
A |---------|
E |-2-1-2-0-|
A |-2-1-2-0-|
    . . . .

B |----------------------------------------------|
F#|----------------------------------------------|
D |----------------------------------------------|(x4)
A |-------------------4b5r4----------------------|
E |-1t----1t-----2-1--4b5r4--1t----1t----2-1-2-0-|
A |----4t----4t--2-1------------4t----4t-2-1-2-0-|
                 . .                     . . . .

   3:18 - 3:24
B |------------------------------|
F#|------------------------------|
D |------------------------------|(x2)
A |------------------------------|
E |-2--1---0-1-2--1--0-1-333-444-|
A |-2--1---0-1-2--1--0-1-555-666-|
    .  .   . . .  .  . . ... ...
   
   3:24 - 3:27
B |-----------------|
F#|-----------------|
D |-----------------|(x2)
A |-----------------|
E |-2-1-2-4-5-4-2-1-|
A |-4-3-4-6-7-6-4-3-|
    . . .       . .

   3:27 - 3:32
B |------------------------------|
F#|------------------------------|
D |------------------------------|(x2)
A |------------------------------|
E |-2--1---0-1-2--1--0-1-333-444-|
A |-2--1---0-1-2--1--0-1-555-666-|
    .  .   . . .  .  . . ... ...

   3:33
B |---|
F#|---|
D |---|
A |---|
E |-2-|
A |-2-|
    .

   3:35 - 3:46
B |------------|
F#|------------|
D |------------|
A |------------|
E |-4-3-4-7--6-|
A |-6-5-6-9--8-|
    . . . .

B |----------------------------|
F#|----------------------------|
D |----------------------------|(x3)
A |----------------------------|
E |-2--1---0-1-2--1-4-3-4-7--6-|
A |-2--1---0-1-2--1-6-5-6-9--8-|
    .  .   . . .  . . . . .

   3:46 - 3:49
B |----------------------------|
F#|----------------------------|
D |----------------------------|
A |----------------------------|
E |-2--1---0-1-2--1-4-3-4-7--6-|
A |-2--1---0-1-2--1-6-5-6-9--8-|
    .  .   . . .  . . . . .  .







Guitar 2 = Sam Yates

   -SNARE-

   0:03 - 0:14 
B |-------------------------------|
F#|-------------------------------|
D |-------------------------------|(x4)
A |-------------------------------|
E |-2-1-2-4-2-1-2-1-2-4-2-1-3t-4t-|
A |-4-3-4-6-4-3-4-3-4-6-4-3-------|
    . . . . . . . . . . . .

   0:14 - 0:26
B |-------------------------------------------------------------|
F#|-------------------------------------------------------------|
D |-------------------------------------------------------------|
A |-------------------------------------------------------------|
E |-2-1-2-4-2-1-2-1-2-4-2-1-2-1---2-1-2-4-2-1-2-1-2-4-2-1-3t-4t-|
A |-2-1-2-4-2-1-2-1-2-4-2-1-2-1---2-1-2-4-2-1-2-1-2-4-2-1-------|
    . . . . . . . . . . . . . .   . . . . . . . . . . . .

B |-----------------------------------------------------------------------|
F#|-----------------------------------------------------------------------|
D |-----------------------------------------------------------------------|
A |-----------------------------------------------------------------------|
E |-2-1-2-4-2-1-2-1-2-4-2-1-2-1---2-1-2-4-2-1-2-1-2-4-2-1-3h6p3h6-4h7p4h7-|
A |-2-1-2-4-2-1-2-1-2-4-2-1-2-1---2-1-2-4-2-1-2-1-2-4-2-1-----------------|
    . . . . . . . . . . . . . .   . . . . . . . . . . . .

   0:29 - 0:43
B |-----|
F#|-----|
D |-----|
A |-----|
E |-0-4-|
A |-0-4-|
    . .
(x2)
B |------------------------------------------------------------------------|
F#|------------------------------------------------------------------------|
D |------------------------------------------------------------------------|
A |------------------------------------------------------------------------|
E |-3t-4t-3t-----------------------------3t-4t-3t----------------------0-4-|
A |----------4t-3t-4t/7t-6t-7t-6t-0t-4t-----------4t-3t-4t/7t-6t-7t-6t-0-4-|
                                                                       . .

   0:43 - 0:57
B |-----------------------------------|
F#|-----------------------------------|
D |-----------------------------------|(x3)
A |-----------------------------------|
E |-2-1-2-1-2-6-6-6--2-1-2-1----------|
A |-3-2-3-2-3-5-5-5--3-2-3-2-0t-1t-4t-|
    . . . . .        . . . .

B |--------------------------------|
F#|--------------------------------|
D |--------------------------------|
A |--------------------------------|
E |-2-1-2-1-2-6-6-6--2-1-2-1-0-1-4-|
A |-3-2-3-2-3-5-5-5--3-2-3-2-0-1-4-|
    . . . . .        . . . . . . .

   0:57 - 1:11
B |-------------------------------------|
F#|-------------------------------------|
D |-------------------------------------|(x4)
A |-------------------------------------|
E |-3t-4t-3t----------------------------|
A |----------4t-3t-4t/7t-6t-7t-6t-0t-4t-|


   1:11 - 1:30
B |-------------------------------------------------|
F#|-------------------------------------------------|
D |-------------------------------------------------|
A |-------------------------------------------------|
E |-6-7-------77-6-------------------6-7-------77-6-|
A |-6-7-------77-6-------------------6-7-------77-6-|
    . .       .. .                   . .       .. 

(x2)
|-------------------------------------------------------------------------|
|-------------------------------------------------------------------------|
|-------------------------------------------------------------------------|
|-----7t-6t------7t-6t-4t-6t-4t\3t-----7t-6t------7t-6t-4t-6t-4t\3t/4t\3t-|
|-6-7-------77-6-------------------6-7-------77-6-------------------------|
|-6-7-------77-6-------------------6-7-------77-6-------------------------|
  . .       .. .                   . .       .. .

   1:30 - 1:41
B |--------------------------|
F#|--------------------------|
D |--------------------------|(x4)
A |--------------------------|
E |-6-7--4-6-4--3-4-3--1-3-1-|
A |-6-7--4-6-4--3-4-3--1-3-1-|
    . .  . . .  . . .  . . .

   1:41 - 1:57
B |-----------------------------------|
F#|-----------------------------------|
D |-----------------------------------|(x4)
A |-----------------------------------|
E |-6-7---4-6-4---3-4-3---1-3---------|
A |-6-7---4-6-4---3-4-3---1-3-1h4p1h4-|
    . .   . . .   . . .   . .

   1:57 - 2:09 
B |-------------------------------|
F#|-------------------------------|
D |-------------------------------|(x4)
A |-------------------------------|
E |-2-1-2-4-2-1-2-1-2-4-2-1-3t-4t-|
A |-4-3-4-6-4-3-4-3-4-6-4-3-------|
    . . . . . . . . . . . .

   2:09 - 2:15
B |-------------------------------------------------------------|
F#|-------------------------------------------------------------|
D |-------------------------------------------------------------|
A |------------------1-----1-----1----------------------1-----1-|
E |-4-3-1-4-3-1--2*--1-2-2-1-2-2-1-2---4-3-1-4-3-1--2*--1-2-2-1-|
A |-6-5-3-4-3-1--------2-2---2-2---2---6-5-3-4-3-1--------2-2---|
    . . . . . .        . .   . .   .   . . . . . .        . .

   2:15 - 2:22
B |--------------------------------------------------------------------|
F#|--------------------------------------------------------------------|
D |--------------------------------------------------------------------|
A |------------------1-----1-----1---------------------1-----1-----1---|
E |----4-3--3-1--2*--1-2-2-1-2-2-1-2---4--3--3--1--2*--1-2-2-1-2-2-1-2-|
A |-12/6-5--3-1--------2-2---2-2---2---6--5--3--1--------2-2---2-2---2-|
       . .  . .        . .   . .   .   .  .  .  .        . .   . .   .

   2:22 - 2:28
B |---------------------------------------------------------|
F#|---------------------------------------------------------|
D |---------------------------------------------------------|
A |----------------1-----1-----1--------------------1-----1-|
E |-44-33-1--22-0--1-2-2-1-2-2-1-2---44-33-1--22-0--1-2-2-1-|
A |-66-55-3--22-0----2-2---2-2---2---66-55-3--22-0----2-2---|
    .. .. .  .. .    . .   . .   .   .. .. .  .. .    . .

   2:28 - 2:56
B |--------------------------|
F#|--------------------------|
D |--------------------------|(x8)
A |-1------------------------|
E |-1--2-1-2-1-0--4--1--2--1-|
A |----2-1-2-1-0--4--1--2--1-|
       . . . . .  .  .  .  .

   2:56
B |----|
F#|----|
D |----|
A |----|
E |-1~-|
A |-1~-|


   2:59 - 3:16
B |----------------------------------------------|
F#|----------------------------------------------|
D |----------------------------------------------|(x5)
A |-------------------4b5r4----------------------|
E |-1t----1t-----2-1--4b5r4--1t----1t----2-1-2-0-|
A |----4t----4t--2-1------------4t----4t-2-1-2-0-|
                 . .                     . . . .
   
   3:18 - 3:24
B |------------------------------|
F#|------------------------------|
D |------------------------------|(x2)
A |------------------------------|
E |-2--1---0-1-2--1--0-1-333-444-|
A |-2--1---0-1-2--1--0-1-555-666-|
    .  .   . . .  .  . . ... ...
   
   3:24 - 3:27
B |-----------------|
F#|-----------------|
D |-----------------|(x2)
A |-----------------|
E |-2-1-2-4-5-4-2-1-|
A |-4-3-4-6-7-6-4-3-|
    . . .       . .

   3:27 - 3:32
B |------------------------------|
F#|------------------------------|
D |------------------------------|(x2)
A |------------------------------|
E |-2--1---0-1-2--1--0-1-333-444-|
A |-2--1---0-1-2--1--0-1-555-666-|
    .  .   . . .  .  . . ... ...

   3:33 - 3:46
B |----------------------------|
F#|----------------------------|
D |----------------------------|(x3)
A |----------------------------|
E |-2--1---0-1-2--1-4-3-4-7--6-|
A |-2--1---0-1-2--1-6-5-6-9--8-|
    .  .   . . .  . . . . .

   3:46 - 3:49
B |----------------------------|
F#|----------------------------|
D |----------------------------|
A |----------------------------|
E |-2--1---0-1-2--1-4-3-4-7--6-|
A |-2--1---0-1-2--1-6-5-6-9--8-|
    .  .   . . .  . . . . .  .


. = palm mute
b = bend
r = release bend
t = tremelo
h = hammer on
p = pull off
* = pinch harmonic
~ = let ring
Добавлено: 16.10.2013
Вам также может быть интересно:
Другие материалы по этой песне:
  • Аккорды и текст

Страница создана 16.10.2013
http://primanota.ru/ingested/skinned-and-fucked-chords.htm
Привет, Гость.
Предлагаем пройти революционный курс по гитаре.
Подарок от PrimaNota.Ru, забирай!