PrimaNota.ru - самый крупный в мире бесплатный архив песенных текстов, аккордов, табулатур и нот


Ingebjørg Bratland - Jul I Svingen - таба, видео

Регистрация Запомнить меня
Войти через:  Facebook Google Twitter Vk Yandex Mail.ru

Ingebjørg Bratland - Jul I Svingen - таба, видео

Печатать
Просмотров: 143
-------------------------------------------------------------------------------
                             Jul i svingen - Ingebjørg Bratland
-------------------------------------------------------------------------------
Tabbed by: Mathias Løken
E-mail: matloken@gmail.com

Tuning:

e|---/5-5-4h5s7--5-------------------------------------4h5------5-5-4h5s7----|
B|-----------------7--5v------------5--------------5-7-----7-5---------------|
G|-------------------------7-7--6h7---7-4--------6---------------------------|
D|----------------------------------------7v---7-----------------------------|
A|---------------------------------------------------------------------------|
E|---------------------------------------------------------------------------|

e|---5-2--2s4v-----2s4h5-5--4h5s7--5-2s4--------4h5--------------------------|
B|---------------------------------------5--5-7-----5------------------------|
G|----------------------------------------------------7-6-4------------------|
D|----------------------------------------------------------7v~--------------|
A|---------------------------------------------------------------------------|
E|---------------------------------------------------------------------------|

e|---5--5-4------------------------------------------------------------------|
B|-----------7-5-------------------------------------------------------------|
G|----------------6h7p6-4----------------------------------------------------|
D|------------------------7v---7-9-6--7v~------------------------------------|
A|---------------------------------------------------------------------------|
E|---------------------------------------------------------------------------|


************************************

| /   slide up
| \   slide down
| h   hammer-on
| p   pull-off
| ~   vibrato
| +   harmonic
| x   Mute note
| b   Bend
| pb  Pre-bend
| br  Bend release
| pbr Pre-bend release
| brb Bend release bend

************************************
Добавлено: 14.08.2015
Вам также может быть интересно:
Другие материалы по этой песне:
  • Аккорды и текст

Страница создана 14.08.2015
http://primanota.ru/ingebjrg-bratland/jul-i-svingen-chords.htm
Привет, Гость.
Предлагаем пройти революционный курс по гитаре.
Подарок от PrimaNota.Ru, забирай!