PrimaNota.ru - самый крупный в мире бесплатный архив песенных текстов, аккордов, табулатур и нот


Infracture - Ashtray - аккорды и текст, видео

Регистрация Запомнить меня
Войти через:  Facebook Google Twitter Vk Yandex Mail.ru

Infracture - Ashtray - аккорды и текст, видео

Печатать
Просмотров: 109
Уроки эстрадного вокала в Санкт-Петербурге
Ashtray
Infracture
                         ASHRTAY(IN-FRACTURE)

Track 1( Ashtray Intro Lead)

Intro Lead

     Q    Q    Q     Q        Q     Q     Q     Q        Q     Q    Q
E||-----------------------|--------------------------|-----------------------|
B||-----------------------|--------------------------|-----------------------|
G||--9----9----9----12----|--12----12----11----11----|-----------------------|
D||-----------------------|--------------------------|--12----br12----9------|
A||-----------------------|--------------------------|-----------------------|
E||-----------------------|--------------------------|-----------------------|


  Q    Q    Q     Q        Q     Q     Q     Q        Q     Q
-----------------------|--------------------------|--------------|-----------|
-----------------------|--------------------------|--------------|-----------|
--9----9----9----12----|--12----12----11----12----|--11---~br12----|---------|
-----------------------|--------------------------|--------------|-----------|
-----------------------|--------------------------|--------------|-----------|
-----------------------|--------------------------|--------------|-----------|


  Q    Q    Q     Q        Q     Q     Q        Q     Q    Q
-----------------------|--------------------|-----------------------|
-----------------------|--------------------|-----------------------|
--9----9----9----12----|--12----12----11----|-----------------------|
-----------------------|--------------------|--12----12--br--9------|
-----------------------|--------------------|-----------------------|
-----------------------|--------------------|-----------------------|


   Q     Q     Q     Q        Q
--------------------------|-----------|
--------------------------|-----------|
--------------------------|-----------|
--10----10----12----14----|--^12------|pull
--------------------------|-----------|
--------------------------|-----------|


Duration Legend
---------------
W - whole
H - half
Q - quarter
E - 8th
S - 16th
T - 32nd
X - 64th
. - note dotted
|-n-|  - n-tuplets


Tablature Legend
h - hammer on
p - pull off
b - bend
br - bendRelease
pb - preBend
pbr - preBendRelease
brb - bendReleaseBend
\n/ - tremolo bar dip
\n - tremolo bar dive
TP - tremolo picking

 Em                 Bm
AKASE AJE CHORIYE DILAM
C               D
JIBONER SOB BASTOTA

Em               Bm
DUKHO SOB URIYE DILAM
 C                  D
CIGARETER DUSHOR DHOWYA
Em                  Bm
BISRITY GULO DULO HOYE
C             D
URE JAY DUR AKASE
Em               Bm
AMAR KOSTO JENO AJ
C              D
MISE JAY DUR BATASE

Em             C
NIRMOM RATE HOTATH KORE
D              G
CHITKE PORE NIHARICKA
Em             C
TRIBRO HOYE KALER TANE
D                  G
CHUTEE CHOCHI AMI AKA


Em                 Bm
ATIT SRITY GUMREE KADEE
C                 D
PORE THAKA OI ASHTRAYTE
Em                 Bm
JHILSE JOWYA AMAR RIJOY
C                 D
DUBE JETE CHAY BISHDEE


NIRMON RATEE................
Добавлено: 07.04.2012
Другие материалы по этой песне:
  • Аккорды и текст

Страница создана 07.04.2012
http://primanota.ru/infracture/ashtray-chords.htm
Привет, Гость.
Предлагаем пройти революционный курс по гитаре.
Подарок от PrimaNota.Ru, забирай!