PrimaNota.ru - самый крупный в мире бесплатный архив песенных текстов, аккордов, табулатур и нот


Infinity Ink - Infinity - бас-таба, видео

Регистрация Запомнить меня
Войти через:  Facebook Google Twitter Vk Yandex Mail.ru

Infinity Ink - Infinity - бас-таба, видео

Печатать
Просмотров: 189
Авторы: Ali Love, Luca Cazal

-------------------------------------------------------------------------------
                             SONG NAME - Band Name
-------------------------------------------------------------------------------
Tabbed by: Cadiuro
E-mail: cadiuro@gmail.com

It's my first tab ever; it's a very simple tune repeated throughout the entire 
song, but I like it.

Tuning: EADG

G|----------------------------------------|
D|--7---7-7-9-10-9------------------------|
A|-----------------8-8-8-7---7------------|
E|----------------------------------------|

Repeat as many times as possible; every now and then there's a small pause on the 
last note. Well, you'll figure it out.

To keep it interesting, you can an octave lower every now and then:

G|----------------------------------------|
D|----------------------------------------|
A|--0---0-0-2-3-2-------------------------|
E|----------------1-1-1-0---0-------------|

Infinity Ink's website: http://www.residentadvisor.net/dj/infinityink
Добавлено: 18.10.2013
Другие материалы по этой песне:
  • Аккорды и текст

Страница создана 18.10.2013
http://primanota.ru/infinity-ink/infinity-chords.htm
Привет, Гость.
Предлагаем пройти революционный курс по гитаре.
Подарок от PrimaNota.Ru, забирай!