PrimaNota.ru - самый крупный в мире бесплатный архив песенных текстов, аккордов, табулатур и нот


Infinite - Be Mine - текст песни, таба, видео

Регистрация Запомнить меня
Войти через:  Facebook Google Twitter Vk Yandex Mail.ru

Infinite - Be Mine - текст песни, таба, видео

Печатать
Просмотров: 429
Title: Be Mine 
Artist: Infinite
Arrangement: JooLee

This is only the melody to the chorus. Watch the video here
http://www.youtube.com/watch?v=9WXwdfS4-3s
CAPO 6
 4/4
  Gtr I
  E E E E E Q E E E E E E Q Q Q E E Q E E E E E E Q Q Q E E Q E E E E
|-----------0-----------------------2-----------------------0---------|
|-----0-----------0-1-----1---------------3-0-----3---0-----------0-1-|
|-0-2-0---0-----0---2---2-2-0-2---2-----2---0---0-----0---0-----0---0-|
|-----2-2-----2-----2-2---2---4-4-----4-----2-2-----4-2-2-----2-----2-|
|-----2-------------0-----0---2-------------2---------2-------------3-|
|---------------------------------------------------------------------|


  E E Q Q Q E E Q E E Q E E Q.
|-----0---------2-----------------|
|---1---3-3---3-------3-----3-----|
|---0-----2-2-------2-----2-------|
|-2-2-----0-------0-----0---------|
|---3-----------------------------|
|---------------------------------|


  E E E E E Q E E E E E E Q Q Q E E Q E E E E E E Q Q Q E E Q E E E E
|-----------0-----------------------2-----------------------0---------|
|-----0-----------0-1-----1---------------3-0-----3---0-----------0-1-|
|-0-2-0---0-----0---2---2-2-0-2---2-----2---0---0-----0---0-----0---0-|
|-----2-2-----2-----2-2---2---4-4-----4-----2-2-----4-2-2-----2-----2-|
|-----2-------------0-----0---2-------------2---------2-------------3-|
|---------------------------------------------------------------------|


  E E Q Q Q E E Q E E Q E E Q.
|-----0---------2-----------------|
|---1---3-3---3-------3-----3-----|
|---0-----2-2-------2-----2-------|
|-2-2-----0-------0-----0---------|
|---3-----------------------------|
|---------------------------------|
Добавлено: 10.11.2013
Другие материалы по этой песне:
  • Аккорды и текст

Страница создана 10.11.2013
http://primanota.ru/infinite/be-mine-chords.htm
Привет, Гость.
Предлагаем пройти революционный курс по гитаре.
Подарок от PrimaNota.Ru, забирай!