PrimaNota.ru - самый крупный в мире бесплатный архив песенных текстов, аккордов, табулатур и нот


Infest - Voice Your Opinion - таба, видео

Регистрация Запомнить меня
Войти через:  Facebook Google Twitter Vk Yandex Mail.ru

Infest - Voice Your Opinion - таба, видео

Печатать
Просмотров: 109
Уроки эстрадного вокала в Санкт-Петербурге
----------------------------------------------------------------------------
                             VOICE YOUR OPINION - Infest
----------------------------------------------------------------------------
Tabbed by: min0r_threat
E-mail: ngrantj@yahoo.com

Tuning: Standard

BAND WEBSITE: http://en.wikipedia.org/wiki/Infest_(band)

Not enough powerviolence is tabbed! So I did this classic by ear, enjoy!

OPENING
e|--X-X-X-X----|
B|--X-X-X-X----|
G|--X-X-X-X----|
D|--X-X-X-X----|
A|--X-X-X-X----|
E|--X-X-X-X----|

RIFF #1
e|---------------|
B|---------------|
G|---------------|
D|---------------|
A|--555--4-44----|
E|--333--2-22----|

RIFF #2
e|---------------|
B|---------------|
G|---------------|
D|----------4----|
A|--555--44-2----|
E|--333--22------|

RIFF #3
e|------------|
B|------------|
G|------------|
D|------------|
A|--5555-4----|
E|--3333-2----|

RIFF #4
e|-------------|
B|-------------|
G|-------------|
D|--------4----|
A|--5555-42----|
E|--3333-2-----|

SONG STRUCTURE:

OPENING
RIFF #1 x3
RIFF #2
RIFF #1 x3
RIFF #2
RIFF #3 x4
RIFF #1 x4
RIFF #3 x4
RIFF #1
RIFF #2
RIFF #1
RIFF #2
RIFF #3 x4
RIFF #4 x8
RIFF #3 x2
RIFF #4 x6
RIFF #1 x2

And that's it!
Добавлено: 06.09.2013
Вам также может быть интересно:
Другие материалы по этой песне:
  • Аккорды и текст

Страница создана 06.09.2013
http://primanota.ru/infest/voice-your-opinion-chords.htm
Привет, Гость.
Предлагаем пройти революционный курс по гитаре.
Подарок от PrimaNota.Ru, забирай!