PrimaNota.ru - самый крупный в мире бесплатный архив песенных текстов, аккордов, табулатур и нот


Infest - Mindless - таба, видео

Регистрация Запомнить меня
Войти через:  Facebook Google Twitter Vk Yandex Mail.ru

Infest - Mindless - таба, видео

Печатать
Просмотров: 69
(intro)
E|----------------------------------------------------------------|
B|----------------------------------------------------------------|
G|----------------------------------------------------------------|
D|------4-----5-----8-----7-----4-----5-----------8----7----------|
A|----4-----5-----8-----7-----4-----5-------------8----7----------|
E|--2-----3-----6-----5-----2-----3---------------6----5----------|

(slow verse)
|--------------------------------------------|
|--------------------------------------------|
|--------------------------------------------|
|--4-4-4---5-5-5---8-8-8---7-7-7-------------|
|--4-4-4---5-5-5---8-8-8---7-7-7-------------|
|--2-2-2---3-3-3---6-6-6---5-5-5-------------|

|--------------------------------------------|
|--------------------------------------------|
|--------------------------------------------|
|--4-4-4---5-5-5---8-8-8---7-7-7-------------|
|--4-4-4---5-5-5---8-8-8---7-7-7-------------|
|--2-2-2---3-3-3---6-6-6---5-5-5-------------|

|--------------------------------------------|
|--------------------------------------------|
|--------------------------------------------|
|--4-4-4---5-5-5---8-8-8---7-7-7-------------|
|--4-4-4---5-5-5---8-8-8---7-7-7-------------|
|--2-2-2---3-3-3---6-6-6---5-5-5-------------|

|---------------------------------------|
|---------------------------------------|
|---------------------------------------|
|--4-4-4---5-5-5---8-8-8---7------------|
|--4-4-4---5-5-5---8-8-8---7------------|
|--2-2-2---3-3-3---6-6-6---5------------|

(blast)
|------------------|
|------------------|
|------------------|   (x4)
|--5-4---8---------|
|--5-4---8---------|
|--3-2---6---------|

(chorus)
E|-------------------------------------------------------------------|
B|-------------------------------------------------------------------|
G|-------------------------------------------------------------------|
D|------4-----5-----8-----7-----4-----5----------8-8---7-7-----------|
A|----4-----5-----8-----7-----4-----5------------8-8---7-7-----------|
E|--2-----3-----6-----5-----2-----3--------------6-6---5-5-----------|

(slow verse 2)
same as first, but in 4th bar:
|---------------------------------|
|---------------------------------|
|---------------------------------|
|--4-4-4---5-5-5---8---7----------|
|--4-4-4---5-5-5---8---7----------|
|--2-2-2---3-3-3---6---5----------|

(blast)
|------------------|
|------------------|
|------------------|   (x8)
|--5-4---8---------|
|--5-4---8---------|
|--3-2---6---------|


---------Submitted by RedxBread-------------------------
for corrections/questions kick this - congenitaldeath@gmail.com
congenitaldeath.blogspot.com
Добавлено: 08.08.2013
Другие материалы по этой песне:
  • Аккорды и текст

Страница создана 08.08.2013
http://primanota.ru/infest/mindless-chords.htm
Привет, Гость.
Предлагаем пройти революционный курс по гитаре.
Подарок от PrimaNota.Ru, забирай!