PrimaNota.ru - самый крупный в мире бесплатный архив песенных текстов, аккордов, табулатур и нот


Inferno - Satanic Overkill - таба, видео

Регистрация Запомнить меня
Войти через:  Facebook Google Twitter Vk Yandex Mail.ru

Inferno - Satanic Overkill - таба, видео

Печатать
Просмотров: 113
Satanic Overkill
by INFERNO
from the World Domination II Comp.
Trascription by : P. Mackay
E-Mail address :  balsama@hotmail.com
Questions, comments, corrections, MAIL ME!

This Tablature was created with Tab Form Creator by Ugo Gasparri
ugo_er_mejo@geocities.com

Tab Notation:
~       tremelo pick
...     Uncertain of how many times played
p.m.    Palm mute
\       Slide down
h       hammer-on

Tuning: Eb (1/2 step down)

   let ring
E-|----
B-|----
G-|----
D-|----
A-|-2--
E-|-0--

*  (another guitar is playing a whole bunch of noisy shit...just play
*  around)

  Riff 1
E-|-----------------------------|-|-|--------------
B-|-----------------------------|-|-|--------------
G-|-----------------------------|-|-|--------------
D-|-----------------------------|-|-|-7-8-8--7-8-8-
A-|-7--7-7-7-7-7-7--------------|-|-|-5-6-6--5-6-6-
E-|-5--5-5-5-5-5-5--7h5--8h5-8h5|-|-|--------------
       p.m........

  Riff 2
E-|----------------------------------------------------
B-|----------------------------------------------------
G-|----------------------------------------------------
D-|--------------9\------------------8------7----------
A-|-2-2~---------7\------2-2~--------6-9-8--5-8-7------
E-|-0-0~-----------------0-0~----------7-6----6-5------
      p.m. .....           p.m.....    . .    . .

  Riff3
E-|----------------------------------------------------
B-|----------------------------------------------------
G-|---------------------5~-4~--------------------------
D-|----------------------------------------------------
A-|-2-2~------------5-7--------------------------------
E-|-0-0~-------5--8------------------------------------
      p.m..... .  . . .
 
  Riff4
E-|----------------------------------------------------
B-|----------------------------------------------------
G-|-----------------------7~-6~------------------------
D-|----------------------------------------------------
A-|-4-4~--------------7--9-----------------------------
E-|-2-2~-------7--10-----------------------------------
      p.m..... .   .  .  .

* The second time you play the Riff 3 series(I think its 3 times),
* end it with an E5

   Riff 5
E-|----------------------------------------------------
B-|----------------------------------------------------
G-|-------------------3-3-3----------------------------
D-|-------------------3-3-3----------------------------
A-|-2-222-6-222-5-222-1-1-1----------------------------
E-|-0-000-4-000-3-000----------------------------------
      ...   ...   ...

* (sometimes they double-time the muted E5 chords; in that case, 
* play the muted E5 chords 6 times!!!)

  Riff 6
E-|----------------------------------
B-|----------------------------------
G-|-7-7-7-7-8-7-7-7-7-7-7-7-10-7-7-7-
D-|-0-0-0-0-0-0-0-0-0-0-0-0-0--0-0-0-
A-|----------------------------------
E-|----------------------------------

Riff 6 (continued)
E-|----------------------------------------------------
B-|----------------------------------------------------
G-|-7-6-5-5--------------------------------------------
D-|---------7-6-5-5------------------------------------
A-|-----------------7-6-5-5----------------------------
E-|-------------------------7-6-5-3--------------------

*************Return to Riff 1 for solo*****************

* I believe that is the song.  I didn't include any of the feedback or 
* harmonic noises because I am lazy and they are annoying to figure out.  
* You don't need them, the song still kicks-ass. Please let me know of any 
* corrections that need to be made.  Enjoy!  Oh, if you want to tab out the 
* solo, please send me a copy.
Добавлено: 03.06.2012
Вам также может быть интересно:
Другие материалы по этой песне:
  • Аккорды и текст

Страница создана 03.06.2012
http://primanota.ru/inferno/satanic-overkill-chords.htm
Привет, Гость.
Предлагаем пройти революционный курс по гитаре.
Подарок от PrimaNota.Ru, забирай!