PrimaNota.ru - самый крупный в мире бесплатный архив песенных текстов, аккордов, табулатур и нот


Infectious Grooves - Citizen Of The Nation - текст песни, бас-таба, видео

Регистрация Запомнить меня
Войти через:  Facebook Google Twitter Vk Yandex Mail.ru

Infectious Grooves - Citizen Of The Nation - текст песни, бас-таба, видео

Печатать
Просмотров: 173
==================================================
|  ARTIST : Infectious Grooves                   |
|  TITLE : Citizen of the Nation                 |
|  Album : Mas Borracho (2006 Suicidal Records)  |
|  Tabbed by : olicorn                           |
==================================================


PART A : play 6 times
========================
G |------------ 8------------------|------------ 8------------------|
D |-------- 9------10-- 9--10-- 9--|-------- 9------10-- 9--10------|
A |--------------------------------|--------------------------------|
E |---- 7--------------------------|---- 7--------------------------|
B | 0------------------------------| 0------------------------------|


G |------------ 8------------------|--------11------------14--------|
D |-------- 9------10-- 9--10------|----12------------14------------|
A |--------------------------------|--------------------------------|
E |---- 7--------------------------|10------------14----------------|
B | 0------------------------------|--------------------------------|


PART B
=========================
G |--------------------------------|--------------------------------|
D |--------------------------------|--------------------------------|
A |--------------------------------|--------------------------------|
E | 7-------------- 0--------------| 7--------------------/19-------|
B |--------------------------------|--------------------------------|


G |--------------------------------|--------------------------------|
D |--------------------------------|---------------- 9-- 7----------|
A |--------------------------------|---------------------- 9 8 7----|
E | 7-------------- 0--------------| 7--------------------------10 7|
B |--------------------------------|--------------------------------|


G |--------------------------------|--------------------------------|
D |--------------------------------|--------------------------------|
A |--------------------------------|---------------- 8--------------|
E | 7-------------- 0--------------| 7------------------------------|
B |--------------------------------|--------------------------------|


G |--------------------------------|
D |--------------------------------|
A |--------------------------------|
E |--------------------------------|
B | 2------------------------------|


PART C : play 3 times
I think all notes are slapped (thumb only), but not sure about that
=========================
G |--------------------------------|--------------------------------|
D |------------------ 7------------|--------------------------------|
A |-------------- 9------ 7-- 9----|---------------------- 5-- X 4--|
E | 7 7 7 7 7-- X--------------10--| 7 7 7 7 7---- 5-- 7------------|
B |--------------------------------|---------- 7--------------------|


G |--------------------------------|--------------------------------|
D |------------------ 7------------|--------------------------------|
A |-------------- 9------ 7-- 9----|--------------------------------|
E | 7 7 7 7 7-- X--------------10--| 7 7 7 7 7----------------------|
B |--------------------------------|--------------------------------|


PART D : play 2 times
=======================
G |--------------------------------|--------------------------------|
D |--------------------------------|-------------- 3----------------|
A | 5-- 5-- 3---- 5-- 5-- X 3-- 3--| 5-- 5-- 3-------- X 3-- 5------|
E |--------------------------------|--------------------------------|
B |--------------------------------|--------------------------------|

                                       H       H       H     H
G |--------------------------------|--------------------------------|
D |--------------------------------|--------------------------------|
A | 5-- 5-- 3---- 5-- 5-- X 3-- 3--|-------- 7 9 9 9 5 7 7 7--------|
E |--------------------------------| 5 7 7 7---------------- 3 5 5 5|
B |--------------------------------|--------------------------------|


PART E : play 4 times
G |--------------------------------|--------------------------------|
D |--------------------------------|--------------------------------|
A | 5-- 5-- 3---- 5-- 5-- X 4-- 4--| 6-- 6-- 4---- 6-- 6-- X 5-- 5--|
E |--------------------------------|--------------------------------|
B |--------------------------------|--------------------------------|


Enjoy !
Добавлено: 08.04.2012
Другие материалы по этой песне:
  • Аккорды и текст

Страница создана 08.04.2012
http://primanota.ru/infectious-grooves/citizen-of-the-nation-chords.htm
Привет, Гость.
Предлагаем пройти революционный курс по гитаре.
Подарок от PrimaNota.Ru, забирай!