PrimaNota.ru - самый крупный в мире бесплатный архив песенных текстов, аккордов, табулатур и нот


Infectious Grooves - Back To The People - текст песни, бас-таба, видео

Регистрация Запомнить меня
Войти через:  Facebook Google Twitter Vk Yandex Mail.ru

Infectious Grooves - Back To The People - текст песни, бас-таба, видео

Печатать
Просмотров: 94
12/8/07
Back to the People by Infectious Grooves
Tabbed by Austin (Atharhaco)
Email: zippedshadow@aol.com

This is my first tab ever for an awesome song by an awesome band.
I think this tab is 95% correct.
Here we go!

(0:00)

G|---12\11-----------12\11------------12\11-----------12\11--------------|
D|---11--------------11---------------11--------------11-----------------|
A|--------------------------------2--------------------------------4-----|
E|--------------------------2--5-----------------------------2--5--------|

G|---12\11-----------12\11------------12\11-----------12\11--------------|
D|---11-------4---x--11---------------11--------------11-----------------|
A|--------------------------------2--------------------------------4-xx--|
E|---------0h2-x------------2--5-----------------------------2--5--------|


(0:16)

G|-------------------------------------------------|
D|-----------------------------------------5\4-----|
A|---5h7-xx-5h7-xx---------2222---4--5h7-------5---|  x4
E|-------------------3--5--------------------------|


(0:32)

G|---12\11-----------12\11------------12\11-----------12\11--------------|
D|---11--------------11---------------11--------------11-----------------|
A|--------------------------------2--------------------------------4-----|
E|--------------------------2--5-----------------------------2--5--------|

G|---12\11-----------12\11------------12\11-----------12\11--------------|
D|---11-------4---x--11---------------11--------------11-----------------|
A|--------------------------------2--------------------------------4-xx--|
E|---------0h2-x------------2--5-----------------------------2--5--------|


(0:48)

G|-------------------------------------------------|
D|-----------------------------------------5\4-----|
A|---5h7-xx-5h7-xx---------2222---4--5h7-------5---|  x3
E|-------------------3--5--------------------------|

G|-------------------------------------------------|
D|---------------------------------------5-----5---|
A|---5h7-xx-5h7-xx---------2222---4--5h7---5h7-----|
E|-------------------3--5--------------------------|


(1:10)

I'm not sure if it is a bass making this noise, but it sounds correct to me.
To get the right sound, mute the lower frets and strum with your finger.

G|----------x------------x-----------------------------|
D|---x-x-x--x--xxx--x-x--x-----------------------------|
A|---x-x-x-----xxx--x-x--------------------------------|  x4
E|-----------------------------------------------------|


(1:39)

G|------------------------------------------------4p1-----4-------------|
D|----------2------------------------------2----------4p1---------------|
A|---2-3-4----------0h2-3-4-------0h2-3-4-------------------------------|
E|----------------------------------------------------------------------|


(1:47)

G|----------------------------------------------------------------------|
D|------------2----------------------------2----------------5-4-4p2~----|
A|---0h2-3-4--------0h2-3-4-------0h2-3-4---------0h2-3-4---------------|  x2
E|----------------------------------------------------------------------|


(2:07)

G|---12\11----------12\11------------------------|
D|---11-------------11---------------------------|
A|-----------------------------------------------|
E|----------------------------------12\\---------|


(2:11)

G|-------------------------------------------------|
D|-----------------------------------------5\4-----|
A|---5h7-xx-5h7-xx---------2222---4--5h7-------5---|  x6
E|-------------------3--5--------------------------|


(2:35)

G|---12\11-----------12\11------------12\11-----------12\11----|
D|---11--------------11---------------11--------------11-------|
A|-------------------------------------------------4-----------|
E|-------------------------------------------2--5--------------|

Enjoy!
Email me with any corrections!
Добавлено: 23.05.2012
Другие материалы по этой песне:
  • Аккорды и текст

Страница создана 21.03.2012
http://primanota.ru/infectious-grooves/back-to-the-people-chords.htm
Привет, Гость.
Предлагаем пройти революционный курс по гитаре.
Подарок от PrimaNota.Ru, забирай!