PrimaNota.ru - самый крупный в мире бесплатный архив песенных текстов, аккордов, табулатур и нот


Infected Mushroom - Heavyweight - таба, видео

Регистрация Запомнить меня
Войти через:  Facebook Google Twitter Vk Yandex Mail.ru

Infected Mushroom - Heavyweight - таба, видео

Печатать
Просмотров: 572
Авторы музыки: Amit Duvdevani, Erez Aizen

Solo part 2
this is my favorite sole to play. its just.. sick

                              

E:--/12~--/14~--/15~--/19~~--: x1
B:---------------------------:
G:---------------------------:
D:---------------------------:
A:---------------------------:
E:---------------------------:


E:----12-15~--12~\0---: x1
B:-12-----------------:
G:--------------------:
D:--------------------:
A:--------------------:
E:--------------------:


E:-12----12-14-15~--12~-------: x1
B:----12---------------15b17--:
G:----------------------------:
D:----------------------------:
A:----------------------------:
E:----------------------------:


E:----12-15~--12~-----------: x1
B:-12------------15-12-15~--:
G:--------------------------:
D:--------------------------:
A:--------------------------:
E:--------------------------:


E:------12-15~12-15~12-15~12-15~12-15~--: x1
B:-12-15--------------------------------:
G:--------------------------------------:
D:--------------------------------------:
A:--------------------------------------:
E:--------------------------------------:


E:----12-15~\3/15~\0--/17~\0--/18~19~---: x1
B:-12-----------------------------------:
G:--------------------------------------:
D:--------------------------------------:
A:--------------------------------------:
E:--------------------------------------:

these are 15s and 19s so dont get confused

E:--19~1519~1519~1519~1519~---: x1
B:----------------------------:
G:----------------------------:
D:----------------------------:
A:----------------------------:
E:----------------------------:

play right into this

E:--15-19-24~15-19-24~15-19-24~15-19-26~-26~--: x1
B:--------------------------------------------:
G:--------------------------------------------:
D:--------------------------------------------:
A:--------------------------------------------:
E:--------------------------------------------:



E:--12-14-15~--12~\0---: x1
B:---------------------:
G:---------------------:
D:---------------------:
A:---------------------:
E:---------------------:



E:-12----12-14-15~--12~-/17~~--: x1
B:----12-----------------------:
G:-----------------------------:
D:-----------------------------:
A:-----------------------------:
E:-----------------------------:


E:----12-15~--12~-----------: x1
B:-12------------15~--------:
G:--------------------------:
D:--------------------------:
A:--------------------------:
E:--------------------------:


E:----12-14-15-12-14-15-12-14-15--15p14p12-15p14p12-/17-15-14-12~--: x1
B:-12--------------------------------------------------------------:
G:-----------------------------------------------------------------:
D:-----------------------------------------------------------------:
A:-----------------------------------------------------------------:
E:-----------------------------------------------------------------:



E:---------------------------: x1
B:--12-15-12-----------------:
G:-----------14----12~--9~~--:
D:--------------14-----------:
A:---------------------------:
E:---------------------------:


E:----------------------------------------------------: x1
B:---------------------------------------15b17~~~~~~--:
G:----9-11-12~9-12~9-12~9-12-9------------------------:
D:--9--------------------------12b13~~~---------------:
A:----------------------------------------------------:
E:----------------------------------------------------:


E:----------------------------------------------------------------: x1
B:--15b15b15b15~15~15-12~15----15---------------------------------:
G:--------------------------14~---12~~~--12-11--------------------:
D:---------------------------------------------12-12/14~~~~~~\1---:
A:----------------------------------------------------------------:
E:----------------------------------------------------------------:

the whole solo is pretty much the same with just little variations. 
this is only my second tab ever. so it might need some fixing, but enjoy it
Добавлено: 17.07.2012
Другие материалы по этой песне:

Страница создана 22.05.2012
http://primanota.ru/infected-mushroom/heavyweight-chords.htm
Привет, Гость.
Предлагаем пройти революционный курс по гитаре.
Подарок от PrimaNota.Ru, забирай!