PrimaNota.ru - самый крупный в мире бесплатный архив песенных текстов, аккордов, табулатур и нот


Infamy - Catharsis - таба, видео

Регистрация Запомнить меня
Войти через:  Facebook Google Twitter Vk Yandex Mail.ru

Infamy - Catharsis - таба, видео

Печатать
Просмотров: 101
Infamy
Catharsis
Kenny Mogul

E-------------------------------------
B-------------------------------------
G-----7---8---7-----------------------   Play 4 X
D-5-5---5---5---5--------8-10-----8-7-
A--------------------6-6------6-6-----
D-------------------------------------


E-------------------------------------------------
B-------------------------------------------------
G-------------------------------------------------
D-8-7--5-5-5-8\7--3-3-3-3/5--5-5-5-8\7--3-3-3-3-0-
A-8-7--5-5-5-8\7--3-3-3-3/5--5-5-5-8\7--3-3-3-3-0-
D-8-7--5-5-5-8\7--3-3-3-3/5--5-5-5-8\7--3-3-3-3-0-

It goes like that for the rest of the song

     
Добавлено: 16.06.2013
Другие материалы по этой песне:
  • Аккорды и текст

Страница создана 16.06.2013
http://primanota.ru/infamy/catharsis-chords.htm
Привет, Гость.
Предлагаем пройти революционный курс по гитаре.
Подарок от PrimaNota.Ru, забирай!