PrimaNota.ru - самый крупный в мире бесплатный архив песенных текстов, аккордов, табулатур и нот


Indk - Livin With Les - таба, видео

Регистрация Запомнить меня
Войти через:  Facebook Google Twitter Vk Yandex Mail.ru

Indk - Livin With Les - таба, видео

Печатать
Просмотров: 70
-------------------------------------------------------------------------------
Livin' With L.E.S - INDK
-------------------------------------------------------------------------------
Tabbed by: Pmdean95
E-mail: Pmdean95@gmail.com

Tuning: Standard

Here's a tab of in my mind one of INDK's best songs.
I've spent ages listening to and perfecting the way to play this song and have been 
covering it with my band Legal Disaster for a long time and am highly sure that 
this tab is correct.
Enjoy!


Intro:
lead guitar:
e|------------------|
B|------------------|
G|------------------|
D|-66-888-999-99999-|
A|-66-888-999-99999-|
E|-44-666-777-77777-| x2

e|----------------------------------|
B|----------------------------------|
G|---------4-44-44---------66666666-|
D|-4-4--44-4-44-44-6-66-66-66666666-|
A|-4-4--44-2-22-22-6-66-66-44444444-|
E|-2-2--22---------4-44-44----------| x2

rhythm guitar:
e|------------------|
B|------------------|
G|------------------|
D|-66-888-999-99999-|
A|-66-888-999-99999-|
E|-44-666-777-77777-| x2

e|----------------------------------|
B|----------------------------------|
G|---------4-44-44---------66666666-|
D|-4-4--44-4-44-44-6-66-66-66666666-|
A|-4-4--44-2-22-22-6-66-66-44444444-|
E|-2-2--22---------4-44-44----------| x2


Verse 1 (clean):
lead guitar: (skank chords)
e|-6-----6-----7-----6-----4-----6-----4-----4----|
B|-7-x4--6-x4--7-x4--7-x4--4-x4--7-x4--4-x4--8-x4-|
G|-8-----6-----8-----6-----4-----8-----4-----8----|
D|------------------------------------------------|
A|------------------------------------------------|
E|------------------------------------------------| x2

e|---66--6---66--6---66--6---66--6-|
B|---77--7---77--7---77--7---77--7-|
G|---------------------------------|
D|---------------------------------|
A|---------------------------------|
E|---------------------------------|

e|-4-----6-----4-----4----|
B|-4-x4--7-x4--4-x4--8-x4-|
G|-4-----8-----4-----8----|
D|------------------------|
A|------------------------|
E|------------------------|

(no rhythm guitar)


Pre-Verse:
lead guitar:
e|------------------|
B|------------------|
G|------------------|
D|-66-888-999-99999-|
A|-66-888-999-99999-|
E|-44-666-777-77777-| x2

rhythm guitar:
e|------------------|
B|------------------|
G|------------------|
D|-66-888-999-99999-|
A|-66-888-999-99999-|
E|-44-666-777-77777-| x2


Chorus:
lead guitar:
e|----------------------------------|
B|----------------------------------|
G|---------44-44444--------66-66666-|
D|-44-4444444-4444466-6666666-66666-|
A|-44-4444422-2222266-6666644-44444-|
E|-22-22222--------44-44444---------| x4

e|----------------------------------|
B|----------------------------------|
G|----------------------------------|
D|---------44444444--------66666666-|
A|-44444444222222226666666644444444-|
E|-22222222--------44444444---------|
   ........................

e|---------------------------------|
B|---------------------------------|
G|-888866664444----3334444666-66-6-|
D|-88886666444444443334444666-66-6-|
A|-66664444222244441112222444-44-4-|
E|-------------2222----------------|

e|-------------------------------------------------|
B|-------------------------------------------------|
G|-888866664444----3-3-33334-4-4444666666666-------|
D|-88886666444444443-3-33334-4-4444666666666-------|
A|-66664444222244441-1-11112-2-2222444444444-------|
E|-------------2222--------------------------------|

rhythm guitar:
e|----------------------------------|
B|----------------------------------|
G|---------44-44444--------66-66666-|
D|-44-4444444-4444466-6666666-66666-|
A|-44-4444422-2222266-6666644-44444-|
E|-22-22222--------44-44444---------| x4

e|----------------------------------|
B|----------------------------------|
G|----------------------------------|
D|---------44444444--------66666666-|
A|-44444444222222226666666644444444-|
E|-22222222--------44444444---------|
   ........................

e|---------------------------------|
B|---------------------------------|
G|-888866664444----3334444666-66-6-|
D|-88886666444444443334444666-66-6-|
A|-66664444222244441112222444-44-4-|
E|-------------2222----------------|

e|-------------------------------------------------|
B|-------------------------------------------------|
G|-888866664444----3-3-33334-4-4444666666666-------|
D|-88886666444444443-3-33334-4-4444666666666-------|
A|-66664444222244441-1-11112-2-2222444444444-------|
E|-------------2222--------------------------------|


Verse 2 (clean):
lead guitar:
e|-6-----6-----7-----6-----4-----6-----4-----4----|
B|-7-x4--6-x4--7-x4--7-x4--4-x4--7-x4--4-x4--8-x4-|
G|-8-----6-----8-----6-----4-----8-----4-----8----|
D|------------------------------------------------|
A|------------------------------------------------|
E|------------------------------------------------| x2

e|---66--6---66--6---66--6---66--6-|
B|---77--7---77--7---77--7---77--7-|
G|---------------------------------|
D|---------------------------------|
A|---------------------------------|
E|---------------------------------|

e|-4-----6-----4-----5-----------------------------|
B|-4-x4--7-x4--4-x4--7-(hold for about 3 measures)-|
G|-4-----8-----4-----7-----------------------------|
D|-------------------------------------------------|
A|-------------------------------------------------|
E|-------------------------------------------------|

(no rhythm guitar)


Solo:
lead guitar:
e|------------------|
B|------------------|
G|------------------|
D|-9---8~~~~~~~~~~~-|
A|------------------|
E|------------------|

e|-----------------------------------------------------|
B|-----------------------------------------------9-----|
G|--------------------------------------10b11-10--1110-|
D|-98---98-1198------89-9h11p9-11h13p11----------------|
A|----9---9----9118----9------9--------9---------------|
E|-----------------9-----------------------------------|

                                                */----------------------\--|
e|-------------------------------------------------------------------------|
B|-------------------------------------------------------------------------|
G|-11108--8---------------------------11109--------------------------------|
D|------11-11981198--98--------------------1198----------------------------|
A|-----------------11--1198---11-98------------119-(hold for 4 measures)---|
E|-------------------------119-----119-------------------------------------|

rhythm guitar:
e|----------------------------------|
B|----------------------------------|
G|---------44-44444--------66-66666-|
D|-44-4444444-4444466-6666666-66666-|
A|-44-4444422-2222266-6666644-44444-|
E|-22-22222--------44-44444---------| x2


Chorus 2:
lead guitar:
e|----------------------------------|
B|----------------------------------|
G|---------44-44444--------66-66666-|
D|-44-4444444-4444466-6666666-66666-|
A|-44-4444422-2222266-6666644-44444-|
E|-22-22222--------44-44444---------| x3

e|----------------------------------|
B|----------------------------------|
G|----------------------------------|
D|---------44444444--------66666666-|
A|-44444444222222226666666644444444-|
E|-22222222--------44444444---------|
   ........................

e|---------------------------------|
B|---------------------------------|
G|-888866664444----3334444666-66-6-|
D|-88886666444444443334444666-66-6-|
A|-66664444222244441112222444-44-4-|
E|-------------2222----------------|

e|-------------------------------------------------|
B|-------------------------------------------------|
G|-888866664444----3-3-33334-4-4444666666666-------|
D|-88886666444444443-3-33334-4-4444666666666-------|
A|-66664444222244441-1-11112-2-2222444444444-------|
E|-------------2222--------------------------------|

rhythm guitar:
e|----------------------------------|
B|----------------------------------|
G|---------44-44444--------66-66666-|
D|-44-4444444-4444466-6666666-66666-|
A|-44-4444422-2222266-6666644-44444-|
E|-22-22222--------44-44444---------| x4


Bridge:
lead guitar:
e|------------------------------------------------------------------|
B|------------------------------------------------------------------|
G|-88-88888--------------------------------88-88888--------66-66666-|
D|-88-8888888-8888899-9999944-4444466-6666688-8888866-6666666-66666-|
A|-66-6666688-8888899-9999944-4444466-6666666-6666666-6666644-44444-|
E|---------66-6666677-7777722-2222244-44444--------44-44444---------| x2

e|---------------------------------------------|
B|---------------------------------------------|
G|-8---10/11------10/11------10/11------11/10--|
D|-x----x-----8----x-----9----x-----4----x-----|
A|-6----8/9---x----8/9---x----8/9---x----9/8---|
E|------------6----------7----------2----------|

e|------------------------------------------|
B|------------------------------------------|
G|-----10/11------11/10-----------6---8/10--|
D|-6----x-----8----x-----6---8/9--x---x-----|
A|-x----8/9---x----9/8---x---x----4---6/8---|
E|-4----------6----------4---6/7------------|

rhythm guitar:
e|------------------------------------------------------------------|
B|------------------------------------------------------------------|
G|-88-88888--------------------------------88-88888--------66-66666-|
D|-88-8888888-8888899-9999944-4444466-6666688-8888866-6666666-66666-|
A|-66-6666688-8888899-9999944-4444466-6666666-6666666-6666644-44444-|
E|---------66-6666677-7777722-2222244-44444--------44-44444---------| x4


Outro:
lead guitar:
e|-----------------------------------------------------------------|
B|-----------------------------------------------------------------|
G|----8--------------------33------------------------------66-6----|
D|------------8-------9-------4-------6---------------6------------|
A|-66--------------------------------------66-6--------------------|
E|---------66------77--------------44--------------44--------------|

e|-6-------6-------7-------55--5---------------------------|
B|-7-------6-------7-------77--7---------------------------|
G|-8-------6-------8-------77--7-(hold as long as desired)-|
D|-8-------8-------9-------77--7---------------------------|
A|-6-------8-------9-------55--5---------------------------|
E|-6-------6-------7-------55--5---------------------------|

rhythm guitar:
e|-66x6x6x666x6x6x777x7x7x222x2x2x444x4x4x666x6x6x444x4x4x444x4x4x4--|
B|-77x7x7x666x6x6x777x7x7x222x2x2x444x4x4x777x7x7x444x4x4x666x6x6x6--|
G|-88x8x8x666x6x6x888x8x8x333x3x3x444x4x4x888x8x8x444x4x4x666x6x6x6--|
D|-------------------------------------------------------------------|
A|-------------------------------------------------------------------|
E|-------------------------------------------------------------------|

e|-6-------6-------7-------55--5---------------------------|
B|-7-------6-------7-------77--7---------------------------|
G|-8-------6-------8-------77--7-(hold as long as desired)-|
D|-8-------8-------9-------77--7---------------------------|
A|-6-------8-------9-------55--5---------------------------|
E|-6-------6-------7-------55--5---------------------------|

* last note of the solo is help all the way through the first 4 measures of the second chorus

THE END

************************************

| /   slide up
| \   slide down
| h   hammer-on
| p   pull-off
| ~   vibrato
| +   harmonic
| x   Mute note
| b   Bend
| pb  Pre-bend
| br  Bend release
| pbr Pre-bend release
| brb Bend release bend
| . palm muted note

************************************
Добавлено: 12.02.2014
Другие материалы по этой песне:
  • Аккорды и текст

Страница создана 12.02.2014
http://primanota.ru/indk/livin-with-les-chords.htm
Привет, Гость.
Предлагаем пройти революционный курс по гитаре.
Подарок от PrimaNota.Ru, забирай!