PrimaNota.ru - самый крупный в мире бесплатный архив песенных текстов, аккордов, табулатур и нот


Indk - Killing Is Contagious - текст песни, таба, видео

Регистрация Запомнить меня
Войти через:  Facebook Google Twitter Vk Yandex Mail.ru

Indk - Killing Is Contagious - текст песни, таба, видео

Печатать
Просмотров: 79
Авторы музыки: INDK
Авторы текста: Erza Kire
-------------------------------------------------------------------------------
			     Killing Is Contagious - INDK
-------------------------------------------------------------------------------
Tabbed by:Evlsk8er	
Email:

Tuning:Standard

INTRO
e|----------------------------------------------------------------------------------|
B|----------------------------------------------------------------------------------|
G|-444----------------444----------------888--9-9-9-9-9-9-9---888-----9-9-9-9-9-9-9-|
D|-444-6-6-6-6-6-6-6--444-6-6-6-6-6-6-6--888--9-9-9-9-9-9-9---888-----9-9-9-9-9-9-9-|
A|-222-6-6-6-6-6-6-6--222-6-6-6-6-6-6-6--666--7-7-7-7-7-7-7---666-----7-7-7-7-7-7-7-|x2
E|-----4-4-4-4-4-4-4------4-4-4-4-4-4-4---------------------------------------------|

After first time playing the first riff the lead goes... i didnt tab the strumming
e|444444444444---------------------------------------------------------------|
B|---------------------------------------------------------------------------|
G|---------------------------------------------------------------------------|
D|---------------------------------------------------------------------------|
A|---------------------------------------------------------------------------|
E|---------------------------------------------------------------------------|
VERSE
e|-----------------------------------|
B|-----------------------------------|
G|-4-4-4-4---------------------------|
D|-4-4-4-4--6-6-6-6------------------|x4
A|-2-2-2-2--6-6-6-6--2-2-2-2-2-2-2---|
E|----------4-4-4-4--0-0-0-0-0-0-0---|
Chorus
e|----------------------------------------|
B|----------------------------------------|
G|----------9-9-9-9-----------------------|
D|-6-6-6-6--9-9-9-9-9-9-9-9--4-4-4-4------|
A|-6-6-6-6--7-7-7-7-9-9-9-9--4-4-4-4------|x4
E|-4-4-4-4----------7-7-7-7--2-2-2-2------|

INTRO
e|----------------------------------------------------------------------------------|
B|----------------------------------------------------------------------------------|
G|-444----------------444----------------888--9-9-9-9-9-9-9---888-----9-9-9-9-9-9-9-|
D|-444-6-6-6-6-6-6-6--444-6-6-6-6-6-6-6--888--9-9-9-9-9-9-9---888-----9-9-9-9-9-9-9-|
A|-222-6-6-6-6-6-6-6--222-6-6-6-6-6-6-6--666--7-7-7-7-7-7-7---666-----7-7-7-7-7-7-7-|x2
E|-----4-4-4-4-4-4-4------4-4-4-4-4-4-4---------------------------------------------|

After first time playing the first riff the lead goes... 
e|444444444444---------------------------------------------------------------|
B|---------------------------------------------------------------------------|
G|---------------------------------------------------------------------------|
D|---------------------------------------------------------------------------|
A|---------------------------------------------------------------------------|
E|---------------------------------------------------------------------------|

VERSE
e|-----------------------------------|
B|-----------------------------------|
G|-4-4-4-4---------------------------|
D|-4-4-4-4--6-6-6-6------------------|x4
A|-2-2-2-2--6-6-6-6--2-2-2-2-2-2-2---|
E|----------4-4-4-4--0-0-0-0-0-0-0---|

Chorus
e|----------------------------------------|
B|----------------------------------------|
G|----------9-9-9-9-----------------------|
D|-6-6-6-6--9-9-9-9-9-9-9-9--4-4-4-4------|
A|-6-6-6-6--7-7-7-7-9-9-9-9--4-4-4-4------|x4
E|-4-4-4-4----------7-7-7-7--2-2-2-2------|

Chorus (2nd)
e|----------------------------------------------------------|
B|----------------------------------------------------------|
G|----------10-10-10-10-------------------------------------|
D|-7-7-7-7--10-10-10-10-10-10-10-10---5-5-5-5---------------|
A|-7-7-7-7--8--8--8--8--10-10-10-10---5-5-5-5---------------|x4
E|-5-5-5-5--------------8--8--8--8----3-3-3-3---------------|
OUTRO
e|---------------------------------------------------------------------------|
B|---------------------------------------------------------------------------|
G|-5-5-5---------------------------------------------------------------------|
D|-5-5-5---7-----------------------------------------------------------------|
A|-3-3-3---7-----------------------------------------------------------------|
E|---------5-----------------------------------------------------------------|

Добавлено: 10.08.2013
Другие материалы по этой песне:
  • Аккорды и текст

Страница создана 14.05.2012
http://primanota.ru/indk/killing-is-contagious-chords.htm
Привет, Гость.
Предлагаем пройти революционный курс по гитаре.
Подарок от PrimaNota.Ru, забирай!