PrimaNota.ru - самый крупный в мире бесплатный архив песенных текстов, аккордов, табулатур и нот


Indk - Feeeling Lucky Punk - таба, видео

Регистрация Запомнить меня
Войти через:  Facebook Google Twitter Vk Yandex Mail.ru

Indk - Feeeling Lucky Punk - таба, видео

Печатать
Просмотров: 56
feeling lucky punk
indk

intro
e|------------------------------|
B|------------------------------|
G|------------------------------|
D|-101010-777-555-333-----------|
A|-101010-777-555-333-----------|  X 4
D|-101010-777-555-333-----------|

then
e|-----|
B|-----|
G|-----|
D|--10-|
A|--10-|
D|--10-|

verse
guitar 1
e|-------------------------------------------------|
B|-------------------------------------------------|
G|-10--9------10--9------10--9-------12-10---------|
D|--------777--------333--------555---------101010-|
A|--8--7—-777--8—-7--333--8--7--555--10--8—-101010-|
D|--------777--------333--------555---------101010-|

  ---------------------------------------|
  ---------------------------------------|
  -10—9------10—9------10--9-------12-10-|
  -------777-------333--------555--------|
  --8-7--777—-8-7--333—-8--7—-555--10--8-|
  -------777-------333--------555--------|

  --------------------------------------|
  --------------------------------------|
  ---------12-10-------12-10------10--9-|
  -101010---------777---------333-------|
  -101010--10--8—-777--10—-8--333--8--7-|
  -101010---------777---------333-------|

  ---------------------------------------------|
  ---------------------------------------------|
  —-----14-12---------10—9-----10--9------1010-|
  -555---------101010------777--------333------|
  -555--12-10--101010--8-7—777—-8--7—-333—-8-8-|
  -555---------101010------777--------333------|

  ----------------------------------|
  ----------------------------------|
  ----------------------------------|
  -555555555555---------------------|
  -555555555555---------------------|
  -555555555555---------------------|

guitar 2
e|------------------------------------------|
B|------------------------------------------|
G|------------------------------------------|
D|-777777—--333333---555555---101010101010--|
A|-777777---333333---555555---101010101010--|
D|-777777---333333---555555---101010101010--|
   ......   ......   ......   ............

chorus
both guitars
e|------------------------------------|
B|------------------------------------|
G|------------------------------------|
D|-101010-777-555-333-101010-555—0-2-3|  X 2
A|-101010-777-555-333-101010-555—0-2-3|
D|-101010-777-555-333-101010-555—0-2-3|

End
e|---------------------------------------------|
B|---------------------------------------------|
G|---------------------------------------------|
D|-0-2-3--00--0-2-3--00--0-2-3--00--10---------|
A|-0-2-3--00--0-2-3--00--0-2-3--00--10---------|
D|-0-2-3--00--0-2-3--00--0-2-3--00--10---------|
Добавлено: 26.10.2013
Другие материалы по этой песне:
  • Аккорды и текст

Страница создана 26.10.2013
http://primanota.ru/indk/feeeling-lucky-punk-chords.htm
Привет, Гость.
Предлагаем пройти революционный курс по гитаре.
Подарок от PrimaNota.Ru, забирай!