PrimaNota.ru - самый крупный в мире бесплатный архив песенных текстов, аккордов, табулатур и нот


Indigo Girls - Heartache For Everyone - аккорды и текст, видео

Регистрация Запомнить меня
Войти через:  Facebook Google Twitter Vk Yandex Mail.ru

Indigo Girls - Heartache For Everyone - аккорды и текст, видео

Печатать
Просмотров: 104
Авторы музыки: Amy Ray
Авторы текста: Amy Ray
Heartache For Everyone
Indigo Girls
HEARTACHE FOR EVERYONE
by Amy Ray, the Indigo Girls
album: All That We Let In (2004)
 

This is what I could make out. It's played on an electric guitar with
(I think) slight distortion. Cool song, lots of energy.
 
Enjoy :-)
Agnete Otzen
 

| = pulse beat/down-stroke
^ = off beat/up-stroke
p = pull-off
 

VERSE:
 
  C#               Fm               F#            G#       F#
E 4---4---4-------|4-----4---------|6---6---6-----8-|------6---------||
B 6---6---6-------|6-----6---------|7---7---7-----9-|------7---------||
G 6---6---6-------|5-----5---------|6---6---6-----8-|------6---------||
D 6---6---6-------|6-----6---------|8---8---8-----10|------8---------||
A ----------------|----------------|----------------|----------------||
E ----------------|----------------|----------------|----------------||
  |   |   |   |    |   | ^ |   |    |   |   |   | ^  |   | ^ |   |    x4
..five years...   come my way
 
 
CHORUS:
(The first chorus only has two repetitions)
 
  C#               Fm               F#               G#      F#
E ----------------|----------------|----------------|----------------||
B ----------------|----------------|----------------|----------------||
G ----------------|5---5---6p5-----|6---6---8p6-----|8---6-----------||
D 6---6---8p6-----|----------------|----------------|--------8---7---||
A ----------------|----------------|----------------|----------------||
E ----------------|----------------|----------------|----------------||
  |   |   |   |    |   |   |   |    |   |   |   |    |   |   |   |    x4
  Oh             o-oh             o-oh         ...a heartache...
 
 
BRIDGE:
Half tempo (each measure lasts twice as long as in verse/chorus)
-I just play full barre chords.
 
 
  D#m                G#
   Hey Valentine...  stumblin' around
  C#             F#
   who knew...  such a lonely town
  D#m                G#
   I'll meet you...  we wanted to kiss
  Fm               F#               A
   or take the...  done with this
 
 

Now comes an instrumental, up-stroke version of the verse:

  C#               Fm               F#               G#      F#
E --4---4---4-----|--4---4---4-----|--6---6---6-----|--8-------6-----||
B --6---6---6-----|--6---6---6-----|--7---7---7-----|--9-------7-----||
G --6---6---6---6-|--5---5---5---5-|--6---6---6---6-|--8-------6-----||
D --6---6---6---6-|--6---6---6---6-|--8---8---8---8-|--10------8-----||
A ----------------|----------------|----------------|----------------||
E ----------------|----------------|----------------|----------------||
  | ^ | ^ | ^ | ^  | ^ | ^ | ^ | ^  | ^ | ^ | ^ | ^  | ^ | ^ | ^ | ^  x4
 
 

Back to the "Hey Valentine" part, then verse, chorus and the end.

________________________________________________________________________________
     
Добавлено: 24.10.2013
Другие материалы по этой песне:
  • Аккорды и текст

Страница создана 01.05.2012
http://primanota.ru/indigo-girls/heartache-for-everyone-chords.htm
Привет, Гость.
Предлагаем пройти революционный курс по гитаре.
Подарок от PrimaNota.Ru, забирай!