PrimaNota.ru - самый крупный в мире бесплатный архив песенных текстов, аккордов, табулатур и нот


Indigo Girls - Hammer & A Nail - аккорды и текст, таба, видео

Регистрация Запомнить меня
Войти через:  Facebook Google Twitter Vk Yandex Mail.ru

Indigo Girls - Hammer & A Nail - аккорды и текст, таба, видео

Печатать
Просмотров: 126
Авторы музыки: Emily Saliers
Авторы текста: Emily Saliers
Hammer & A Nail
Indigo Girls



HAMMER AND A NAIL (Emily Saliers)
---------------------------------
[Actually in B; capo 4.]
[Each chord is about half a measure, except in the instrumental parts.
 Ds is really Dsus4; Cs9 is Csus.]
[See the tablature at the end of the file for chord fingerings in the verse.]

G  Ds Em7|Em7  C(9) G|G  Ds Cs9|Cs9   | G  Ds Em7|Em7  C(9) G|G  Ds Cs9|Cs9  |
[intro; see tab at bottom]

G          Dsus        Em7   C(9)   G            Dsus        Em7         C(9)
  Clearing ..
G           Dsus        Em7     Em7    Csus  Csus  Csus  Csus
  I've ..
G          Dsus        Em7     C(9)   G         Dsus       Em7   C(9)
  I ..
G          Dsus      Em7       Em7             Csus     Csus     Csus  Csus
  A ..

Em9        Em9      C(9)          C(9)  Em9    Em9     C(9)    C(9)/B
  I look ..
Am      Am/B      C    A        D   D(9)/C   G/B      G/D
  Glare ..

 G         D            C(9)  D             G   D   C(9)     D 
bed,..
 G                 D          C(9) C(9)         Am     Am         Em7       Em7
head, ..
      C        C               A      A          C(9)       C(9)     C(9)  C(9) 
in a ..

G  Ds Em7|Em7  C(9) G|G  Ds Cs9|Cs9  |
[instrumental, same as intro]

verse

chorus

verse

chorus

G  G/F# | G/F    | C      | Cm      | G      | D      | G   C   | G.
[ending; see below]


INTRO:
  G         Ds  Em7         C(9) G            Ds  Csus
E 3---3---x-3---3-|----3---x-3---3-|----3---x-3---3-|----3----------- ||
B 3---3---x-3---3-|----3---x-3---3-|----3---x-3---3-|----3-----------.||
G 0---0---x-2---0-|----0---x-0---0-|----0---x-2---5-|----5----------- ||
D 0---0---x-0---2-|----2---x-2---0-|----0---x-0---5-|----5-----------.||
A 2---2---x-0---2-|----2---x-3---2-|----2---x-0---3-|----3----------- ||
E 3---3---------0-|----0---------3-|----3-----------|---------------- ||
  ^ . ^ . ^ . ^ .  ^ . ^ . ^ . ^ .  ^ . ^ . ^ . ^ .  ^ . ^ . ^ . ^ . 
[Note that for most of this, your ring and pinky fingers never move.]
[If you don't like barre chords, play Csus as x30033.]


ENDING:
           G       G/F#     G/F              C                Cm
E --------|----------------|----------------|----------------|----------------|
B --------|3-----3-----3---|3---3---3=5-3---|1-----0-1---1---|1-------1=3-1---|
G ----4---|----4-----4-----|--4-------------|----2-----------|------0---------|
D 5-------|--5-----4-----4-|3-----3---------|2---------------|1---1-----------|
A --------|----------------|----------------|----------------|----------------|
E --------|----------------|----------------|----------------|----------------|
  ^ . ^ .  ^ . ^ . ^ . ^ .  ^ . ^ . ^ . ^ .  ^ . ^ . ^ . ^ .  ^ . ^ . ^ . ^ . 

  G                D                G       C        G
E ----------------|----------------|----------3-----|3---------------|
B 0-------------0-|----3-----------|------------1---|3---------------|
G ----------0-----|--2-----4=2-0=2-|0---------------|0---------------|
D 0---0-0=2---2---|0-----0---------|----0-0=2-------|0---------------|
A ----------------|----------------|----------------|2---------------|
A ----------------|----------------|----------------|3---------------|
  ^ . ^ . ^ . ^ .  ^ . ^ . ^ . ^ .  ^ . ^ . ^ . ^ .  ^ . ^ . ^ . ^ .



- Adam Schneider, schneider@pobox.com


Добавлено: 01.09.2013
Другие материалы по этой песне:
  • Аккорды и текст

Страница создана 12.04.2012
http://primanota.ru/indigo-girls/hammer-and-a-nail-chords.htm
Привет, Гость.
Предлагаем пройти революционный курс по гитаре.
Подарок от PrimaNota.Ru, забирай!